Make your own free website on Tripod.com

Vio-pipe

Petunjuk:
h        hammer on
p        pull off
P.M  palm mute

Intro 2x (bass)

e|-----------------------------------------------------------|
B|-----------------------------------------------------------|
G|-----------------------------------------------------------|
D|-----------------------------------------------------------|
A|---------------------------4-4-4-4-4-4-4-4-0-0-0-0-0-0-0-0-|
E|-0-0-0-0-0-0-0-0-0-0-0-0-0---------------------------------|

Rythm (gitar 1 guna neck pick-up)

   ---4x---  ---4x---  ---4x---
e|------------------------------|
B|------------------------------|
G|-----------6--6-6-0-----------|
D|-2--2-2-0--6--6-6-0--7--7-7-0-|
A|-2--2-2-0--4--4-4-0--7--7-7-0-|
E|-0--0-0-0------------5--5-5-0-|

Rythm (gitar 2 guna bridge pick-up, vol. slow sikit)

   ---4x---  ---4x---  ---4x---
e|------------------------------|
B|------------------------------|
G|-----------6--6-6-6-----------|
D|-2--2-2-2--6--6-6-6--7--7-7-7-|
A|-2--2-2-2--4--4-4-4--7--7-7-7-|
E|-0--0-0-0------------5--5-5-5-|
      P.M       P.M       P.M

Solo

       ----------3x---------                   --------2x--------
e|-12-|---------------------------------------|---------------------------------------|
B|----|---------------------------------------|---------------------------------------|
G|----|-----12-10h12p10----10--12-10h12p10----|-12--15-12h15p12----10--12-10h12p10----|
D|----|-13--------------13-----------------13-|-----------------13-----------------13-|
A|----|---------------------------------------|---------------------------------------|
E|----|---------------------------------------|---------------------------------------|

   -----4x----  -----4x----                                                         ---9x---
e|-------------|-------------|------------------------------------|-----------------------------|
B|-------------|-13-11-11----|------------------------------------|-----------------------------|
G|-13-12-12----|-------------|-12-12-10h12p10-----12--10h12p10----|-10--12-10h12p10----10h12p10-|
D|----------13-|----------13-|----------------13---------------13-|-----------------13----------|
A|-------------|-------------|------------------------------------|-----------------------------|
E|-------------|-------------|------------------------------------|-----------------------------|

 (Rythm masuk) 
       ----------3x---------                   --------2x--------                  -----4x---- 
e|---------------------------------------|---------------------------------------|-------------|
B|---------------------------------------|---------------------------------------|-------------|
G|-----12-10h12p10----10--12-10h12p10----|-12--15-12h15p12----10--12-10h12p10----|-13-12-12----|
D|-13--------------13-----------------13-|-----------------13-----------------13-|----------13-|
A|---------------------------------------|---------------------------------------|-------------|
E|---------------------------------------|---------------------------------------|-------------|

   -----4x----                                        --------4x--------
e|-------------|------------------------------------|--------------------|
B|-13-11-11----|------------------------------------|--------------------|
G|-------------|-12-12-10h12p10-----12--10h12p10----|-10--12-10h12p10----|
D|----------13-|----------------13---------------13-|-----------------13-|
A|-------------|------------------------------------|--------------------|
E|-------------|------------------------------------|--------------------|