Make your own free website on Tripod.com

Teknik-teknik

1. Slide

simbol:   / (slide ke not tinggi), \ (slide ke not rendah)
cara main: petik not yang bernombor sebelum simbol / atau \ kemudian seretkan hingga ke not selepas simbol / atau \ tanpa memetik.
contoh:
e|-9/12--------------------------------
B|-------14\12--9-9/12-----------------
G|-------------------------------------
D|-------------------------------------
A|-------------------------------------
E|-------------------------------------
Bunyi


2a. Bend

simbol:   b
cara main: semasa memetik mana-mana not, tolakkan tali tersebut ke atas atau ke bawah.

2b. Release bend

simbol:   rb
cara main: setelah bend mana-mana not, lepaskan tali kepada kedudukan asal dengan jari anda masih menekan not tersebut.
contoh:
e|---------------------------------------
B|--12b--12rb----------------------------
G|-------------11--9--11b--11b--rb11--9--
D|---------------------------------------
A|---------------------------------------
E|---------------------------------------
!!!perhatian: rb11 bermakna anda tidak perlu memetik not tersebut. Hanya release bend not yang anda bend sebelum itu.
Bunyi


3. Pull-off

simbol:   p
cara main:
a. Letakkan jari anda pada dua atau tiga fret. Contoh pada fret 12 & 11.
b. Petik not pada fret 12 itu kemudian lepaskan dengan tarik sedikit tali itu menggunakan jari yang menekan fret 12 tadi. Tetapi jari anda pada fret 11 masih tetap di situ.
contoh:
e|-12p11--11p10------------------------
B|----------------12p10p9--12----------
G|-------------------------------------
D|-------------------------------------
A|-------------------------------------
E|-------------------------------------
Bunyi


4. Hammer-on

simbol:   h
cara main: Hentakkan jari kiri atau jari yang memegang not (bagi yang bukan kidal) pada fret.
contoh:
e|-9h10--10h12-------------------------
B|--------------9h10-------------------
G|--------------------11---------------
D|-------------------------------------
A|-------------------------------------
E|-------------------------------------
Bunyi


5. Tapping

simbol:   T
cara main: hentakkan hujung jari kanan (bagi yang bukan kidal) atau sisi pick anda ke atas fret tertentu.
contoh:
e|-T12-T12-T12--T11-T11-T11-T9-T7--T9------
B|-----------------------------------------
G|-----------------------------------------
D|-----------------------------------------
A|-----------------------------------------
E|-----------------------------------------
Bunyi
!!!perhatian: teknik ini biasanya digabungkan dengan teknik pull-off dan hammer-on seperti di bahagian Teknik Ajaib . Tu pasal yang ni tak sedap bunyi dia.


6. Artifical Harmonic

simbol:   *
Cara main:
a. Pegang pick dengan meninggalkan sedikit sahaja ruang untuk memetik
b. Semasa memetik, kenakan sedikit ibu jari anda kepada tali gitar
(pada bahagian i, buat cara a di atas middle pick-up & pada bahagian ii buat cara b di atas bahagian neck pick-up)
contoh
    ---bah. i---  ---bah. ii---
     *  *  *  *    *  *  *  *
e|--12-12-12-12b--12-12-12-12~----------
B|--------------------------------------
G|--------------------------------------
D|--------------------------------------
A|--------------------------------------
E|--------------------------------------
Bunyi