Make your own free website on Tripod.com

Wet Blanket

Petunjuk:
/        slide kepada chord tinggi
\        slide kepada chord rendah
h        hammer on
p        pull off
b        bend
rb      release bend
t        tap(guna jari atau pick)
+        strum banyak kali

Riff 1                                    a     b        c
                                                +  +     +
e|--------------------------------------|-----|--------|--------|
B|--------------------------------------|-----|-----8--|--------|
G|-----4-5-4-5--4-5-4----7-5-4-5--7-5-4-|-----|--7--7--|--4-----|
D|--5--4-5-4-5--4-5-4-5--7-5-4-5--7-5-4-|--5--|--7--5--|--4--5--|
A|--5--2-3-2-3--2-3-2-5--5-3-2-3--5-3-2-|--5--|--5-----|--2--5--|
E|--3-----------------3-----------------|--3--|--------|-----3--|
Riff 2

e|-----------------------------------------|
B|-----------------------------------------|
G|---------------0-4-5-7--7--7-7-7--5-4-5--|
D|--5--5--5-5-5--0-4-5-7--7--7-7-7--5-4-5--|
A|--5--5--5-5-5--0-2-3-5--5--5-5-5--3-2-3--|
E|--3--3--3-3-3----------------------------|
Riff 3a           Riff 3b
    +  +  +  +    +  +  +  +
e|-------------|--------------|
B|-------------|--------------|
G|-----7-------|--5--7--------|
D|--5--7--5--2-|--5--7--5--2--|
A|--5--5--5--2-|--3--5--5--2--|
E|--3-----3--0-|--------3--0--|
Riff 4
    +  +
e|--------|
B|--------|
G|--5--7--|
D|--5--7--|
A|--3--5--|
E|--------|
Riff 5                                    a     b

e|--------------------------------------|-----|-----|
B|--------------------------------------|-----|-----|
G|-----6-7-6-7--6-7-6----9-7-6-7--9-7-6-|-----|-----|
D|--7--6-7-6-7--6-7-6-7--9-7-6-7--9-7-6-|--7--|--5--|
A|--7--4-5-4-5--4-5-4-7--7-5-4-5--7-5-4-|--7--|--5--|
E|--5-----------------5-----------------|--5--|--3--|
Riff 6

e|-----------|
B|-----------|
G|-----7\----|
D|--5--7\-5--|
A|--5--9\-5--|
E|--3-----3--|
Riff *

e|-----------|
B|-----------|
G|--5-----5--|
D|------5----|
A|----5------|
E|-----------|

Solo

                      3x   ---------2x----------                  

e|-------10b----------10b-|-10-8-7-8-7h8h7----7---|--------------10b-|
B|-10----10b--10-9-10-10b-|----------------10-----|-----8---8-10-10b-|
G|----9-------------------|---------------------9-|-7-9---9----------|
D|------------------------|-----------------------|------------------|
A|------------------------|-----------------------|------------------|
E|------------------------|-----------------------|------------------|
                                        -ulang beberapa kali- 
e|-------------------------------------|----------------------|
B|-8h10-h-7h8-7---7-----------7-----10-|-t12p7h8p7--t10p7h8p7-|
G|--------------9---9-8-7-8-9---9-8----|----------------------|
D|-------------------------------------|----------------------|
A|-------------------------------------|----------------------|
E|-------------------------------------|----------------------|
                                                                          -ulang beberapa kali-
e|-12-10-9-10-9----9------------|-------9b-rb9------------------------12------12--------------|
B|--------------12---12-10-9-12-|-10-12---------12-10-9-10\12-10-9-10-----9h10----------------|
G|------------------------------|-------------------------------------------------------------|
D|------------------------------|-------------------------------------------------------------|
A|------------------------------|-------------------------------------------------------------|
E|------------------------------|-------------------------------------------------------------|

Verse:
Riff 1a 2x, Riff 1b
Riff *

Chorus:
Riff 2 4x

Verse:
Riff 1a 2x, Riff 1b

Chorus:
Riff 2 4x

Bridge:
Riff 3a , Riff 3b

Bridge 2:
Riff 4 2x

solo:
Riff 1 2x, Riff 5 2x

lepas solo:
1st guitar main Riff 6, 2nd guitar main riff 1

Verse:
Riff 1a 2x, Riff 1b
Riff *

Chorus:
Riff 2 3x

Outro:
riff 7


Special Thanks to Ajid & Bagak