Make your own free website on Tripod.com

Teman-XPDC

oleh kerana lagu ni senang, korang dengar la sendiri camana turutannya dan berapa kali dia ulang riff-riff tu!

Intro

       -----------2x----------
e|------------------------------|---------------------------------0-----------0----|
B|------------------------------|-----------------------------2-----1-------2---1--|
G|--2--2-4-5--7-9-7--2-4-5-7-2--|---------------------------2---2-----2---2--------|
D|--2--2-4-5--7-9-7--2-4-5-7-2--|-------0-0h2-0-------0----------------------------|
A|--0--0-2-3--5-7-5--0-2-3-5-0--|-0-2-3-----------0-2---0---------------0----------|
E|------------------------------|---------------3----------------------------------|


e|---------------------------------0-------------0------|
B|-----------------------------2-----1-------2-----1----|
G|---------------------------2---2-----2---2---2-----2--|
D|--------0-0h2-0-------0-------------------------------|
A|--0-2-3-----------0-2---0--------------0--------------|
E|----------------3-------------------------------------|

Verse 1. . . . . . . . . . . . . . . . . . . . . . . . . . . . . . . . . . . . . . . . . . . . .   Chorus

                                                   |
    ------4x------   -----2x------  -----2x------  |
e|-----------0---------------1--------------0------|--------------------|
B|-------2-----1---------3-----3--------2-----1----|--------------------|
G|-----2---2-----2-----2---2-----3----2---2-----2--|--------------7-----|
D|-------------------0-----------------------------|--3--5--2--7--7--7--|
A|--0-------------------------------0--------------|--3--5--2--7--5--7--|
E|-------------------------------------------------|--1--3--0--5-----5--|

Verse 2

    -4x--  -4x--
e|---------------------------|
B|---------------------------|
G|----------------5---7-7----|
D|--8-8-8--7-7-7--5-5-7-7-7--|
A|--8-8-8--7-7-7--3-5-5-5-7--|
E|--6-6-6--5-5-5----3-----5--|
    P.M    P.M

Riff semasa solo

    --2x---   --2x---
e|---------------------|
B|---------------------|
G|--5------------------|
D|--5--5--7---3--5--7--|
A|--3--5--7---3--5--7--|
E|-----3--3---1--3--5--|

Solo

 
e|----------------------------------------------------------------------------|
B|----------------------------------------------------------------------------|
G|-------9----9-----------------------------------9----9--12-10-9-----9-10-9--|
D|-10-12---12----12-10-12-10-9--12-10-9-----10-12---12------------12----------|
A|--------------------------------------12------------------------------------|
E|----------------------------------------------------------------------------|

                             --6x--                                --2x---
e|-----------------------------------------------------------------10b-10b--|
B|--------------------------------------------10-------10-12-10-10----------|
G|-----------------------------------10-10-12----12-12----------------------|
D|-7-7----7----10-7------7-7-10-9-7-----------------------------------------|
A|-----10---10------10-8----------------------------------------------------|
E|--------------------------------------------------------------------------|