Make your own free website on Tripod.com

Stranger-Cromok (bass tab)

Tajuk   : Stranger
Artis   : Cromok
Album   : Yours Truly
Bassist : Shamsudin Ali (Sam Cromok) - finggering

intro:

G-----------------------------------|
D-----------------------------------|
A-----------------------------------|
E-5-5-5-5-5-5-5-5-5-5-5-5-5-5-5-5-3-|


G-----------------------------------------------------------------------------
D-----------------------------------------------------------------------------
A-----------2-3p2---2-----------2-3p2---2-----------2-3p2---2-----------------
E-2-2-2-2-2-------3---2-2-2-2-2-------3---2-2-2-2-2-------3---3-3-3-3-3-3-3-3-


G-------------------------------------------------------------------------------|
D-------------------------------------------------------------------------------| ulang
A-----------2-3p2---2-----------2-3p2---2-----------2-3p2---2-------------------|  2 X
E-2-2-2-2-2-------3---2-2-2-2-2-------3---2-2-2-2-2-------3---3-3-3-3-3-3-3-3-2-|

G-----------------------------------------------------------|
D-----------------------------------------------------------| ulang
A-----------2-3p2---2-----------2-3p2---2-----------2-3p2---|  4 X
E-2-2-2-2-2-------3---2-2-2-2-2-------3---2-2-2-2-2-------3-|

G-------------------------------
D-------------------------------
A-------------------------------
E-2-2-2-2-2-3-0-3-2-2-2-2-2-3-5-


G-------------------------------------------------------------------|
D-------------------------------------------------------------------| ulang
A-------------------------------------------------------------------|  2 X
E-2-2-2-2-2-3-0-3-2-2-2-2-2-3-5-5-5-5-5-5-5-5-5-5-3-3-3-3-3-3-3-3-3-|

G-----------------------------------------------------------|
D-----------------------------------------------------------| ulang
A-----------2-3p2---2-----------2-3p2---2-----------2-3p2---|  4 X
E-2-2-2-2-2-------3---2-2-2-2-2-------3---2-2-2-2-2-------3-|

G-------------------------------
D-------------------------------
A-------------------------------
E-2-2-2-2-2-3-0-3-2-2-2-2-2-3-5-


G-------------------------------------------------------------------|
D-------------------------------------------------------------------| ulang
A-------------------------------------------------------------------|  2 X
E-2-2-2-2-2-3-0-3-2-2-2-2-2-3-5-5-5-5-5-5-5-5-5-5-3-3-3-3-3-3-3-3-3-|

G-----------------------------------------------------------------------------|
D-----------------------------------------------------------------------------| ulang
A-----------5-6p5---5-----------5-6p5---5-----------5-6p5---5---5---6---8---8-|  2 X
E-5-5-5-5-5-------6---6-6-6-6-6-------6---5-5-5-5-5-------6---6---6---6---6---|

G------------------------------------------------------------------------------|
D-----------8-7-8-10-7---------8-7-8-10-7---------8-7-8-10-8-7-----------------| ulang
A-0-0-0-0-0----------0-0-0-0-0----------0-0-0-0-0--------------10-8-7----------|  4 X
E---------------------------------------------------------------------10-8-6-5-|

solo gitar:

G---------------------------------------------|
D---------------------------------------------| ulang
A-------4---5---7---5---------5---6---8---6---|  3 X
E-5-5-5---5---5---5---5-6-6-6---6---6---6---6-|


G-------------------------------------------------|
D-------------------------------------------------|
A-------4---5---7---5---------------1---3---5-----|
E-5-5-5---5---5---5---5-6-6-6-5-3-3---3---3---6-5-|

G---------------------------------------------|
D---------------------------------------------| ulang
A-------4---5---7---5---------5---6---8---6---|  3 X
E-5-5-5---5---5---5---5-6-6-6---6---6---6---6-|


G-------------------------------------------------|
D-------------------------------------------------|
A-------4---5---7---5---------------1---3---5-----|
E-5-5-5---5---5---5---5-6-6-6-5-3-3---3---3---6-5-|

G-------------------------------------------------------------------|
D-------------------------------------------------------------------| ulang
A-------------------------------------------------------------------|  2 X
E-5-5-5-5-5-5-5-5-5-5-5-5-5-5-5-5-5-6--6-6-6-66-6-6-6-6-6-6-6-6-6-6-|

G-------------------------------------------------------------
D-------------------------------------------------------------
A-----------5-6p5---5-----------5-6p5---5-----------5-6p5---5-
E-5-5-5-5-5-------6---6-6-6-6-6-------6---5-5-5-5-5-------6---

G-----------------------------------------------------------------------------
D-----------------------------------------------------------------------------
A-----------2-3p2---2-----------2-3p2---2-----------2-3p2---2-----------------
E-2-2-2-2-2-------3---2-2-2-2-2-------3---2-2-2-2-2-------3---3-3-3-3-3-3-3-3-


G-------------------------------------------------------------------------------|
D-------------------------------------------------------------------------------| ulang
A-----------2-3p2---2-----------2-3p2---2-----------2-3p2---2-------------------|  2 X
E-2-2-2-2-2-------3---2-2-2-2-2-------3---2-2-2-2-2-------3---3-3-3-3-3-3-3-3-2-|

G-----------------------------------------------------------|
D-----------------------------------------------------------| ulang
A-----------2-3p2---2-----------2-3p2---2-----------2-3p2---|  4 X
E-2-2-2-2-2-------3---2-2-2-2-2-------3---2-2-2-2-2-------3-|

G-------------------------------
D-------------------------------
A-------------------------------
E-2-2-2-2-2-3-0-3-2-2-2-2-2-3-5-


G-------------------------------------------------------------------|
D-------------------------------------------------------------------| ulang
A-------------------------------------------------------------------|  2 X
E-2-2-2-2-2-3-0-3-2-2-2-2-2-3-5-5-5-5-5-5-5-5-5-5-3-3-3-3-3-3-3-3-3-|

G------------|
D------------|
A------------|
E-2----3-0-2-|

* tamat

* thanx to kay_rules, bapak, manan, ted,
  dan semua budak-budak metal scc utm
* kalau nak tab gitar lead dan rythm cromok korang taip je
  kay_rules kat 'find' mana-mana...

amin_ns@hotmail.com