Make your own free website on Tripod.com

Sibling-Cromok (bass tab)


Tajuk   : Sibling
Artis   : Cromok
Album   : Yours Truly
Bassist : Shamsudin Ali (Sam Cromok) - finggering

intro:
1st pakai gamelan
G-----------------------|
D-----------2-----------|
A-------2-3---3-2-------|
E-0-2-3-----------3-2-0-|


G-------------------------------------------------------------|
D-------------------------------------------------------------|
A-----------------------------------2---2---------------------|
E-0-0-0-0-0-0-0-0-0-0-0-0-0-0-0-0-3---3---1-1-1-1-1-1-1-3-1-0-|


G--------------------------------------------------------------
D--------------------------------------------------------------
A--------------------------------------------------------------
E-0-0-0-0-0-0-0-0-0-0-0-0-0-0-0-0-0-0-0-0-0-0-0-0-0-0-0-0-0-0--


G-----------------------------------------------------|
D-----------------------------------------------------| ulang
A---------------------------2---2---------------------|  4 X
E-0-0-0-0-0-0-0-0-0-0-0-0-3---3---1-1-1-1-1-1-1-3-1-0-|


G-----------------------------------|
D-2-2-3p2---2-2-3p2---2-2-3p2-------| ulang
A---------3---------3---------3-----|  4 X
E-------------------------------0-1-|

G-------------|
D-------------|
A-------------|
E-0-3-3-0-1-1-|

G-----------------------------------------------------------------|
D-----------------------------------------------------------------| ulang
A-------------------------------------2---2-3-2-------------------|  4 X
E-0-0-0-0-0-0-0-0-0-0-0-0-0-0-0-0-0-0---3-------3-5-5-5-5-3-3-1-1-|


G---------------------------------------------|
D---------------------------------------------| ulang
A---------------------------------------------|  4 X
E-0-0-0-0-0-0-0-0-0-0-0-0-0-0-0-0-0-0-3-1-0-1-|


G---------------------------------------------------------------------------------
D---------------------------------------------------------------------------------
A---4-4-4-4-5-2-2-2-2-------------4-4-4-4---4-4-4-4-5-2-2-2-2---------------------
E-5-------------------3-2-2-2-2-3---------5-------------------3-2-2-2-2-3-6-6-6-6-


G---------------------------------------------------------------------------|
D---------------------------------------------------------------------------|
A---4-4-4-4-5-2-2-2-2-------------4-4-4-4---4-4-4-4-5-2-2-2-2---------------|
E-5-------------------3-2-2-2-2-3---------5-------------------3-2-2-2-2-3-0-|

G---------------------------------------------------------------------------------
D---------------------------------------------------------------------------------
A---4-4-4-4-5-2-2-2-2-------------4-4-4-4---4-4-4-4-5-2-2-2-2---------------------
E-5-------------------3-2-2-2-2-3---------5-------------------3-2-2-2-2-3-6-6-6-6-


G---------------------------------------------------------------------------|
D---------------------------------------------------------------------------|
A---4-4-4-4-5-2-2-2-2-------------4-4-4-4---4-4-4-4-5-2-2-2-2---------------|
E-5-------------------3-2-2-2-2-3---------5-------------------3-2-2-2-2-3-0-|

Drum

G-------------------------------------------------------------|
D-------------------------------------------------------------|
A-----------------------------------2---2---------------------|
E-0-0-0-0-0-0-0-0-0-0-0-0-0-0-0-0-3---3---1-1-1-1-1-1-1-3-1-0-|


G--------------------------------------------------------------
D--------------------------------------------------------------
A--------------------------------------------------------------
E-0-0-0-0-0-0-0-0-0-0-0-0-0-0-0-0-0-0-0-0-0-0-0-0-0-0-0-0-0-0--


G-----------------------------------------------------|
D-----------------------------------------------------| ulang
A---------------------------2---2---------------------|  4 X
E-0-0-0-0-0-0-0-0-0-0-0-0-3---3---1-1-1-1-1-1-1-3-1-0-|

G-----------------------------------|
D-2-2-3p2---2-2-3p2---2-2-3p2-------| ulang
A---------3---------3---------3-----|  4 X
E-------------------------------0-1-|

G---------------------------------------|
D-2-2-3p2---2-2-3p2---2-2-3p2---5-3-2-3-|   fading
A---------3---------3---------3---------| sampai habis
E---------------------------------------|

* waktu fading tu masuk gamelan balik sampai habis

* thanx to kay_rules, bapak, manan, ted,
  dan semua budak-budak metal scc utm
* kalau nak tab gitar lead dan rythm cromok korang taip je
  kay_rules kat 'find' mana-mana...

amin_ns@hotmail.com