Make your own free website on Tripod.com

Bagaikan Samurai-XPDC

Intro

                                            riff a...........     riff b
          ------4x------                    --------4x-------
          -6x-                              -4x-
e|-----------------------|----------------|---------------------|--------|
B|-----------------------|----------------|---------------------|--------|
G|-----------------------|----------------|---------------------|--------|
D|-8-7-5------5----8-7-5-|-2--8-7-5--2--5-|-----5----8/7/8/5-5--|-2--5---|
A|-8-7-5--0-0-5--0-8-7-5-|-2--8-7-5--2--5-|-0-0-5--0-8/7/8/5-5--|-2--5---|
E|-6-5-3--0-0-3--0-6-5-3-|-0--6-5-3--0--3-|-0-0-3--0-6/5/6/5-3--|-0--3---|
          P.M   P.M

Verse & Chorus

 
riff c....................................................  riff d (solo i)
                                              -----3x-----   -----3x-----
   -7x-                   -7x        --3x--   -3x- 
e|---------------------------------------------------------|--------------|
B|---------------------------------------------------------|--------------|
G|---------------------------------------------------------|--------------|
D|-----5----5/4----5/7/5------5--4-5--7--7-5------5--5/4-5-|-----5--8-7-5-|
A|-0-0-5--0-5/4--0-5/7/5--0-0-5--4-5--7--7-5--0-0-5--5/4-5-|-0-0-5--8-7-5-|
E|-0-0-3--0-3/2--0-3/5/3--0-0-3--2-3--5--5-3--0-0-3--3/2-3-|-0-0-3--6-5-3-|
   P.M   P.M    P.M       P.M                  P.M           P.M

ulang riff c

riff e.....................
   2x       7x      7x
e|--------------------------|
B|--------------------------|
G|--------------------------|
D|-2-2--5-4--2--5-7--2--5-7-|
A|-2-2--5-4--2--5-7--2--5-7-|
E|-0-0--3-2--0--3-5--0--3-5-|
   P.M         P.M     P.M

ulang riff b (4x), e, d, b

(solo ii)

   -8x-          -8x-   2x   -8x-      2x  4x                2x
e|---------------------------------------------------------------|
B|---------------------------------------------------------------|
G|---------------------------------------------------------------|
D|-----5--5---5------4--2-2------5--2--2-2--2------5--8-7-5--2-2-|
A|-0-0-5--5-0-5--0-0-4--2-2--0-0-5--2--2-2--2--0-0-5--8-7-5--2-2-|
E|-0-0-3--3-0-3--0-0-2--0-0--0-0-3--0--0-0--0--0-0-3--6-5-3--0-0-|
   P.M    P.M..                                P.M           P.M

ulang riff c, d, e

   -----4x-----
   -4x-         
e|-------------------|
B|-------------------|
G|-------------------|
D|-----5--8-7-5--2-5-|
A|-0-0-5--8-7-5--2-5-|
E|-0-0-3--6-5-3--0-3-|
   P.M

ulang riff c

outro

   --4x--    
e|--------|
B|--------|
G|--------|
D|-2-2--2-|
A|-2-2--2-|
E|-0-0--0-|
   P.M

Solo

Solo Intro(2x)

e|------------------------------------------------------|
B|------------------------------------------------------|
G|------------------------------------------------------|
D|-------5-5----------5-5---------5-5-------------------|
A|--5-7------7-7-5-7------7-7-5-7-----7-7-5-7-----------|
E|---------------------------------------------6-5-3----|

Solo Satu

   -----------2x----------
   -----3x-----                        ------3x-----
e|--------------------------------------------------------|
B|---------------------------------------------------12\--|
G|-9-9-9-9-9h12--9----------9-9-9-7----9-9-12-9-9----12\--|
D|-----------------12-9-12----------9-------------12------|
A|--------------------------------------------------------|
E|--------------------------------------------------------|

Solo Dua

   ----------3x-----------                                                  
e|--------------------------------12---------------------------------------------|
B|-12-12-12-12-12-12-12-10-----12----12----12-12-/-----------------7-6-6-4-------|
G|--------------------------12----------12-12-12-/--6-6-4----4-6b----------6-6-4-|
D|--------------------------------------------------6----------------------------|
A|-------------------------------------------------------------------------------|
E|-------------------------------------------------------------------------------|


   -------2x------  --3x--- --3x--- --3x--- --3x---  ---11x---- ----11x----  ----11x----
                                                      T           T            T
e|------------------12-10-8---------------------------------------------------------------|
B|--------------------------12-10-8------------------13p12p10p8--15p13p12p10--17p15p13p12-|
G|----------------------------------12-11-9-----------------------------------------------|
D|------------------------------------------12-10-9---------------------------------------|
A|-0-0-4-0-0-0-4/6------------------------------------------------------------------------|
E|----------------------------------------------------------------------------------------|


   ----11x---- 
    T           T
e|-------------------------|
B|-19p17p15p13-19p15b-rb\--|
G|-------------------------|
D|-------------------------|
A|-------------------------|
E|-------------------------|

Solo Tiga

   ---------2x---------  -2x-  -------2x------  -------2x------
   (sambil bend.......)        11x sambil bend  11x sambil bend
e|-10-10-10-10-10-10-10--10p7-----------------------------------|
B|-----------------------------7----------------10--------------|
G|--------------------------------------------------------------|
D|--------------------------------------------------------------|
A|--------------------------------------------------------------|
E|--------------------------------------------------------------|

Solo Empat

                                 9x  9x   9x   
e|--------------------------------------------------|
B|-----------------------------------12-\-12-\-12-\-|
G|--------------------------------------------------|
D|------5-5-5----------5-5-5------------------------|
A|-5-7--------7-5-5-7-------7-5---------------------|
E|-------------------------------10-----------------|

Solo Outro

   (ntah berapa kali tah...)
e|--------------------------------|
B|-12-12-12-12-12-12-12-12-12-12--|
G|--------------------------------|
D|--------------------------------|
A|--------------------------------|
E|--------------------------------|