Make your own free website on Tripod.com

Punishment Hour-Cromok (bass tab)


Tajuk   : Punishment Hour
Artis   : Cromok
Album   : Yours Truly
Bassist : Shamsudin Ali (Sam Cromok) - finggering


intro : pakai gitar akustik

e--------------------------------------------------|
B--------------------------------------------------|
G--------------------------------------------------|
D-----5-5-7-5-----4h5p4--------------2-2-4-2-----4-|
A---7-----------5-------5--2-3-5---3-----------5---|
E-0-----------0------------------0-----------0-----|

e-----------------------------------------------------|
B-----------------------------------------------------|
G-----------------------------------------------------|
D-----5-5-7-5-----4h5p4---------------4------1------2-|
A---7-----------5-------5--2-3-5----5------3------2---|
E-0-----------0-------------------0------0------0-----|

intro bass:

E-0h3-| cari le sendiri...ikut sedap jari

G---------------------|
D---------------------| ulang
A---------------------| 12 X
E-0-0-0-0-0-0-1-3-0-1-|

G-------------------------------------------|
D-------------------------------------------| ulang
A-7-7-7-7-7-7-5-8-8-8-7-7-7-7-7-7-5-3-2---5-|  2 X
E---------------------------------------3---|

G---------------------|
D---------------------| ulang
A---------------------| 12 X
E-0-0-0-0-0-0-1-3-0-1-|

G-------------------------------------------|
D-------------------------------------------| ulang
A-7-7-7-7-7-7-5-8-8-8-7-7-7-7-7-7-5-3-2---5-|  2 X
E---------------------------------------3---|

G-----------------------------------------------------------------|
D-----------------------------------------------------------------| ulang
A-----------------------------------------------------------------|  3 X
E-0-0-0-0-0-0-0-0-0-0-0-0-0-0-0h1p0-0-0-0-0-0-0-0-0-0-0-0-0-0-0-1-|

G---------------------------------------------------------------|
D---------------------------------------------------------------|
A---------------------------------------------------------------|
E-0-0-0-0-0-0-0-0-0-0-0-0-0-0-0h1p0-0-0-0-0-0-0-0-0-0-0-0-0-0-0-|

G---------------------------------------------|
D---------------------------------------------| ulang
A-7-7-7-7-7h8-5-5-5-5-5h7-3-3-3-3-3h5-2-2-2-2-|  2 X
E---------------------------------------------|


G-----------------------------------------------------------------|
D-----------------------------------------------------------------| ulang
A-----------------------------------------------------------------|  3 X
E-0-0-0-0-0-0-0-0-0-0-0-0-0-0-0h1p0-0-0-0-0-0-0-0-0-0-0-0-0-0-0-1-|

G---------------------------------------------------------------|
D---------------------------------------------------------------|
A---------------------------------------------------------------|
E-0-0-0-0-0-0-0-0-0-0-0-0-0-0-0h1p0-0-0-0-0-0-0-0-0-0-0-0-0-0-0-|

G---------------------------------------------|
D---------------------------------------------| ulang
A-7-7-7-7-7h8-5-5-5-5-5h7-3-3-3-3-3h5-2-2-2-2-|  2 X
E---------------------------------------------|

G------------|
D------------|
A----------3-|
E-0----0-1---|

G---------------------------------------------------------------------|
D---------------------------2-3-2-------------------------------------| ulang
A---------------------2-3-5-------3-3-3-3-3-3-3-3---------------------|  2 X
E-0-0-0-0-0-0-0-0-3-5-----------------------------1-1-1-1-1-1-1-1-3-1-|

G-------------------------------------------|
D-2-2-2-2-2-2-2-2-0-3-2-2-2-2-2-2-2-2-5-3-2-| ulang
A-------------------------------------------|  4X
E-------------------------------------------|

G---------------------------------------------------------------------|
D---------------------------2-3-2-------------------------------------| ulang
A---------------------2-3-5-------3-3-3-3-3-3-3-3---------------------|  2 X
E-0-0-0-0-0-0-0-0-3-5-----------------------------1-1-1-1-1-1-1-1-3-1-|

G-------------------------------------------|
D-2-2-2-2-2-2-2-2-0-3-2-2-2-2-2-2-2-2-5-3-2-| ulang
A-------------------------------------------|  4X
E-------------------------------------------|

G---------------------------------------------------------------------|
D---------------------------2-3-2-------------------------------------| ulang
A---------------------2-3-5-------3-3-3-3-3-3-3-3---------------------|  2 X
E-0-0-0-0-0-0-0-0-3-5-----------------------------1-1-1-1-1-1-1-1-3-1-|

G---------------------|
D---------------------| ulang
A---------------------| 12 X
E-0-0-0-0-0-0-1-3-0-1-|

G-------------------------------------------|
D-------------------------------------------| ulang
A-7-7-7-7-7-7-5-8-8-8-7-7-7-7-7-7-5-3-2---5-|  2 X
E---------------------------------------3---|

G-----------------------------------------------------------------|
D-----------------------------------------------------------------| ulang
A-----------------------------------------------------------------|  3 X
E-0-0-0-0-0-0-0-0-0-0-0-0-0-0-0h1p0-0-0-0-0-0-0-0-0-0-0-0-0-0-0-1-|

G---------------------------------------------------------------|
D---------------------------------------------------------------|
A---------------------------------------------------------------|
E-0-0-0-0-0-0-0-0-0-0-0-0-0-0-0h1p0-0-0-0-0-0-0-0-0-0-0-0-0-0-0-|

G---------------------------------------------|
D---------------------------------------------| ulang
A-7-7-7-7-7h8-5-5-5-5-5h7-3-3-3-3-3h5-2-2-2-2-|  2 X
E---------------------------------------------|

G------------|
D------------|
A----------3-|
E-0----0-1---|

* tamat

* thanx to kay_rules, bapak, manan, ted,
  dan semua budak-budak metal scc utm
* kalau nak tab gitar lead dan rythm cromok korang taip je
  kay_rules kat 'find' mana-mana...

amin_ns@hotmail.com