Make your own free website on Tripod.com

Tanpa Prejudis

Intro (2x)
   
e|-----------------------------------------------------|
B|-----------------------------------------------------|
G|-----------------------------------------------------|
D|---------4----------------4----------------4---------|
A|---4-5-7---7-5-4----4-5-7---7-5-4----4-5-7---7-5-4---|
E|-7----------------7----------------7---------------5-|
   P.M....   P.M...........   P.M...........   P.M..
Riff 1 (2x bersama solo 1)
e|-----------------------------------------------------------------------------------------------|
B|-----------------------------------------------------------------------------------------------|
G|--------------------------7-7-7-7-7-7-7-7-7-7-7-7---------------6-6-6-6------------------------|
D|-9-9-9-9-9-9-9-9-9-9-9-9--7-7-7-7-7-7-7-7-7-7-7-7--7-7-7-7-7-7--6-6-6-6--7-9-9-9-9-9-9-9-9-9-9-|
A|-9-9-9-9-9-9-9-9-9-9-9-9--5-5-5-5-5-5-5-5-5-5-5-5--7-7-7-7-7-7--4-4-4-4--7-9-9-9-9-9-9-9-9-9-9-|
E|-7-7-7-7-7-7-7-7-7-7-7-7---------------------------5-5-5-5-5-5-----------5-7-7-7-7-7-7-7-7-7-7-|     
     P.M   P.M   P.M   P.M    P.M   P.M   P.M   P.M    P.M   P.M    P.M        P.M   P.M   P.M
Riff 2 (main slow up-down stroke)
e|--------------------------------------------------------------------------|
B|--------------------------------------------------------------------------|
G|--------------------------------------7-7-7-7-7-7-7-7-7-7-7-7-7-7-7-7-7-7-|
D|-9-9-9-9-9-9-9-9-9-9-9-9-9-9-9-9-9-9--7-7-7-7-7-7-7-7-7-7-7-7-7-7-7-7-7-7-|
A|-9-9-9-9-9-9-9-9-9-9-9-9-9-9-9-9-9-9--5-5-5-5-5-5-5-5-5-5-5-5-5-5-5-5-5-5-|
E|-7-7-7-7-7-7-7-7-7-7-7-7-7-7-7-7-7-7--------------------------------------|
   P.M.....................................................................

e|--------------------------------------------------------------------------|
B|--------------------------------------------------------------------------|
G|--------------------------------------------------------------------------|
D|-7-7-7-7-7-7-7-7-7-7-7-7-7-7-7-7-7-7--9-9-9-9-9-9-9-9-9-9-9-9-9-9-9-9-9-9-|
A|-7-7-7-7-7-7-7-7-7-7-7-7-7-7-7-7-7-7--9-9-9-9-9-9-9-9-9-9-9-9-9-9-9-9-9-9-|
E|-5-5-5-5-5-5-5-5-5-5-5-5-5-5-5-5-5-5--7-7-7-7-7-7-7-7-7-7-7-7-7-7-7-7-7-7-|
   P.M.....................................................................
(ulang riff 2 4x. Tapi last part, chord A tu 9x je!)

Ulang riff 1 Riff 3

e|------------------------------------------------------------------|
B|------------------------------------------------------------------|
G|------------------------------------------------------------------|
D|-9-9-9-9-9-9-9-9-9-9-9-9-9-9-9-9--7-7-7-7-7-7-7-7-7-7-7-7-7-7-7-7-|
A|-9-9-9-9-9-9-9-9-9-9-9-9-9-9-9-9--7-7-7-7-7-7-7-7-7-7-7-7-7-7-7-7-|
E|-7-7-7-7-7-7-7-7-7-7-7-7-7-7-7-7--5-5-5-5-5-5-5-5-5-5-5-5-5-5-5-5-|
   P.M.............................................................

e|------------------------------------------------------------------|
B|------------------------------------------------------------------|
G|-7-7-7-7-7-7-7-7-7-7-7-7-7-7-7-7----------------------------------|
D|-7-7-7-7-7-7-7-7-7-7-7-7-7-7-7-7--9-9-9-9-9-9-9-9-9-9-9-9-9-9-9-9-|
A|-5-5-5-5-5-5-5-5-5-5-5-5-5-5-5-5--9-9-9-9-9-9-9-9-9-9-9-9-9-9-9-9-|
E|----------------------------------7-7-7-7-7-7-7-7-7-7-7-7-7-7-7-7-|
   P.M.............................................................

e|------------------------------------------------------------------|
B|------------------------------------------------------------------|
G|------------------------------------------------------------------|
D|-9-9-9-9-9-9-9-9-9-9-9-9-9-9-9-9--7-7-7-7-7-7-7-7-7-7-7-7-7-7-7-7-|
A|-9-9-9-9-9-9-9-9-9-9-9-9-9-9-9-9--7-7-7-7-7-7-7-7-7-7-7-7-7-7-7-7-|
E|-7-7-7-7-7-7-7-7-7-7-7-7-7-7-7-7--5-5-5-5-5-5-5-5-5-5-5-5-5-5-5-5-|
   P.M.............................................................

e|--------------------------------------------------------------------|
B|--------------------------------------------------------------------|
G|-7-7-7-7-7-7-7-7-7-7-7-7-7-7-7-7--7-9-11-11-11-11-11-11-11-11-11-11-|
D|-7-7-7-7-7-7-7-7-7-7-7-7-7-7-7-7--7-9-11-11-11-11-11-11-11-11-11-11-|
A|-5-5-5-5-5-5-5-5-5-5-5-5-5-5-5-5--5-7-9--9--9--9--9--9--9--9--9--9--|
E|--------------------------------------------------------------------|
   P.M............................         P.M..    P.M..    P.M..
Riff 4 (4x, bersama solo)
e|-------------------------------------------------------------------------------|
B|-------------------------------------------------------------------------------|
G|-6-6-6-6-6-6-6-6-6-6-6-6-6-6---------------------------------------------------|
D|-6-6-6-6-6-6-6-6-6-6-6-6-6-6--7-7-7-7-7-7-7-7-7-7-7-7--9-9-9-9-9-9-9-9-9-9-9-9-|
A|-4-4-4-4-4-4-4-4-4-4-4-4-4-4--7-7-7-7-7-7-7-7-7-7-7-7--9-9-9-9-9-9-9-9-9-9-9-9-|
E|------------------------------5-5-5-5-5-5-5-5-5-5-5-5--7-7-7-7-7-7-7-7-7-7-7-7-|
   P.M   P.M   P.M   P.M   P.M    P.M   P.M   P.M   P.M    P.M   P.M   P.M   P.M

e|-------------------------|
B|-------------------------|
G|-------------------------|
D|-6-6-6-6-6-6-6-6-6-6-6-6-|
A|-6-6-6-6-6-6-6-6-6-6-6-6-|
E|-4-4-4-4-4-4-4-4-4-4-4-4-|
     P.M   P.M   P.M   P.M   

Ulang riff intro

Ulang riff 2 2x

Riff 5

e|--------------------------------------------------------------------------------|
B|--------------------------------------------------------------------------------|
G|--------------------------------------7-----------------------------------------|
D|-9-9-9-9-9-9-9-9-9-9-9-9-9-9-9-9-9-9--7--7--7-7-7-7-7-7-7-7-7-7-7-7-7-7-7-7-7-7-|
A|-9-9-9-9-9-9-9-9-9-9-9-9-9-9-9-9-9-9--5--7--7-7-7-7-7-7-7-7-7-7-7-7-7-7-7-7-7-7-|
E|-7-7-7-7-7-7-7-7-7-7-7-7-7-7-7-7-7-7-----5--5-5-5-5-5-5-5-5-5-5-5-5-5-5-5-5-5-5-|
   P.M..................................      P.M................................

e|-------------------------------------|
B|-------------------------------------|
G|-------------------------------------|
D|-9-9-9-9-9-9-9-9-9-9-9-9-9-9-9-9-9-9-|
A|-9-9-9-9-9-9-9-9-9-9-9-9-9-9-9-9-9-9-|
E|-7-7-7-7-7-7-7-7-7-7-7-7-7-7-7-7-7-7-|
   P.M................................
Riff 6
e|--------------------------------------------------------------------------|
B|--------------------------------------------------------------------------|
G|--------------------------------------7-7-7-7-7-7-7-7-7-7-7-7-7-7-7-7-7-7-|
D|-9-9-9-9-9-9-9-9-9-9-9-9-9-9-9-9-9-9--7-7-7-7-7-7-7-7-7-7-7-7-7-7-7-7-7-7-|
A|-9-9-9-9-9-9-9-9-9-9-9-9-9-9-9-9-9-9--5-5-5-5-5-5-5-5-5-5-5-5-5-5-5-5-5-5-|
E|-7-7-7-7-7-7-7-7-7-7-7-7-7-7-7-7-7-7--------------------------------------|
   P.M.....................................................................

e|-------------------|
B|-------------------|
G|-------------------|
D|-7-7-7-7-7-7-7-7-7-|
A|-7-7-7-7-7-7-7-7-7-|
E|-5-5-5-5-5-5-5-5-5-|
   P.M............
Ulang Riff 1 sampai habis lagu


Solo

Petunjuk:
/ slide kepada chord tinggi
\ slide kepada chord rendah
h     hammer on
p     pull off
b     bend
rb    release bend
P.M  palm mute

Solo 1

e|---------------------------------------|
B|---------------------------------------|
G|----9b-rb----9b--9-----------9---------|
D|-9--------12-------12-11--12---12-11-9-|
A|---------------------------------------|
E|---------------------------------------|

Solo 2

e|-----------------------------------|----------------------------------7---------------9-|
B|-----------------------------------|----------------------------7-9-7---9-7---7---------|
G|-6---6-8-9-8-6-8-6--8/9-8--9h8h6-8-|-6---6-8-9-8-6-8--9-8-6-8-9-------------9---9-8-6---|
D|---6-------------------------------|---6------------------------------------------------|
A|-----------------------------------|----------------------------------------------------|
E|-----------------------------------|----------------------------------------------------|
                                       P.M....

e|-9-11-12-11-9-11-12p11p9----9-----|----------------------------------------------------|
B|-------------------------12---12b-|-12-10--9-10-12p10p9-12p10p9-9-10-9b--10-10-9-10----|
G|----------------------------------|-------------------------------------------------11-|
D|----------------------------------|----------------------------------------------------|
A|----------------------------------|----------------------------------------------------|
E|----------------------------------|----------------------------------------------------|

                                                 
e|-------------------------------------9h12p11-11-|-/12-9-11---------------------------|
B|------------------------------------------------|----------12-10-9----10-9-----------|
G|-11-9-8--9-8-6--6-8-9--6-8-9--8-9-11------------|------------------11------11-9-8-9--|
D|------------------------------------------------|------------------------------------|
A|------------------------------------------------|------------------------------------|
E|------------------------------------------------|------------------------------------|

                        --4X-              -----2X----  
e|-------------------------------------------------------------9h12p11--12p11p9-|
B|-----------------------------------------------------9h10h12------------------|
G|-6-8-6-----------------------------------------6-8-9--------------------------|
D|-------9-7-6----------6-6-6--------------6-7-9--------------------------------|
A|-------------6b-rb-7--6-6-6--------6-7-9--------------------------------------|
E|----------------------4-4-4--5-7-9--------------------------------------------|
                        P.M

                                                                            ---6X---
e|-12b-12b--12-11-9-11-11b-12p11p9-11-|-12/16-12-11----------------------------------|
B|------------------------------------|-------------14-12-10-------------------------|
G|------------------------------------|-----------------------11-9-11-9-11--8h11p9p8-|
D|------------------------------------|----------------------------------------------|
A|------------------------------------|----------------------------------------------|
E|------------------------------------|----------------------------------------------|


                           
e|---------------------------------------------|
B|------------------------5/7/9/10/12\10/12\10-|
G|-8-h9-p8----8------8-------------------------|
D|---------11---11-9---------------------------|
A|---------------------9-----------------------|
E|---------------------------------------------|

Solo 3

e|------------------------------------------------------------------------------------------|
B|-9b--9b-9b-9b-----------------------------------------------------------------------------|
G|-9b--9b-9b-9b--11p9----------------------------------------------9------------------------|
D|--------------------12-9p7-9p7-7-12-11--12p11p9-11-12-12p11p9-11---12-11-9----9-----------|
A|---------------------------------------------------------------------------12-------------|
E|--------------------------------------------------------------------------------12-9-10-7-|
                                                                                  P.M......

                                         -----4x-----  ---8x--
e|----------------------------|---------------------------------------------------------------|
B|----------------------------|-----------------------------------------12--12-12-12-12-12-12-|
G|----------------------------|------------------------12p11p9-------16-----------------------|
D|--------------------9-11-12-|-11-12-11-12p11p9-9-11----------12\16--------------------------|
A|----------------/12---------|---------------------------------------------------------------|
E|-7-9-10--7-9-10-------------|---------------------------------------------------------------|

e|------------------------12-----/14-14--14p12p10-12--10-12-12p10p9--------------------|
B|----------12------12-15-----15-------------------------------------------------------|
G|-14-12-14-----/14------------------------------------------------9-7-6---------------|
D|-------------------------------------------------------------------------------------|
A|-----------------------------------------------------------------------5-7-5-4-------|
E|-------------------------------------------------------------------------------5-3-5-|

                                                 -----------2x-----------
e|----------------------------10-------10----|--------------------------|
B|----------12-12--12-/10--12----12--12---12-|-----12----12----12----12-|
G|------/11----------------------------------|-/11----11----11----11----|
D|-------------------------------------------|--------------------------|
A|-/12---------------------------------------|--------------------------|
E|-------------------------------------------|--------------------------|

            -7x--  ---------2x---------         -7X-- 
e|-------------------------------------------19----19-| .......fade out
B|-------15----15--------17----17----17--/19----19----|  
G|-11/14----14-----14/16----16----16------------------|
D|----------------------------------------------------|
A|----------------------------------------------------|
E|----------------------------------------------------|