Make your own free website on Tripod.com

Pelayaran (Solo)

Petunjuk:
/        slide kepada chord tinggi
\        slide kepada chord rendah
h        hammer on
p        pull off
b        bend
rb      release bend
t        tap(guna jari atau pick)
P.M  palm mute
*        artifical harmonic
(mana-mana petunjuk yg tak difahami, lihat bahagian "Teknik & Skills")

e|----------------------------------------------------------------------| 
B|----------------------------------------------------------------------| 
G|---9-----9-----9----5-----5-----5----7-----7-----7----9-----9-----9---| 
D|-9---9-----9-----9----5-----5-----5----7-----7-----7----9-----9-----9-| 
A|-------7-----7----------3-----3----------5-----5----------7-----7-----| 
E|----------------------------------------------------------------------| 
   P.M.................................................................

e|---------------------------------------------------------| 
B|---------------------------------------------------------| 
G|-9-----9-----9----5-----5-----5----7-----7-----7---------| 
D|---9-----9-----9----5-----5-----5----7-----7-----4-5-7-9-| 
A|-----7-----7----------3-----3----------5-----5---2-3-5-7-| 
E|---------------------------------------------------------| 
   P.M....................................................

   -----------------------------------2x--------------------------------------
e|-7-----7-----7---------------------------------------------------------------| 
B|---8-----8-----8--8------8------8----10-------10------10-----7-----7-----7---| 
G|-----9-----9--------9------9------9-----11-------11------11----8-----8-----8-| 
D|----------------------10-----10------------12-------12-----------9-----9-----| 
A|-----------------------------------------------------------------------------| 
E|-----------------------------------------------------------------------------| 
   P.M........................................................................

   -----------4x---------  -----------4x--------  -----------4x---------  
e|-t17-p12-p8--t12-p8-t12--t15-p10-p7-t10-p7-t10--t10-p12-p8-t12-p8-t12-| 
B|----------------------------------------------------------------------| 
G|----------------------------------------------------------------------| 
D|----------------------------------------------------------------------| 
A|----------------------------------------------------------------------| 
E|----------------------------------------------------------------------| 

   -----------4x---------- 
e|-t17-p14-p10-t14-p10-t14--t15-p12-p8-t12-p8-t15p8-t11-------------------------| 
B|------------------------------------------------------------------------------| 
G|------------------------------------------------------------------------------| 
D|-------------------------------------------------------7-t10-p7--10b-rb-b-rb-9| 
A|------------------------------------------------------------------------------| 
E|------------------------------------------------------------------------------| 
                                                           --?x--

  C pentatonic
e|-8-p5---5------------------------------------------------| 
B|------8----8-5-8-p5---5-----------------------------------| 
G|--------------------7----7-5-7-p5---5---------------------| 
D|----------------------------------7----7-5-7-p5---5-------| 
A|------------------------------------------------7---7-5---| 
E|--------------------------------------------------------7-| 


(Segala komen atau soalan.... e-mail aloymetal@hotmail.com)