Make your own free website on Tripod.com

The Other-Cromok (bass tab)


Tajuk   : The Other
Artis   : Cromok
Album   : Forever In Time
Bassist : Shamsudin Ali (Sam Cromok) - finggering

intro :

G---------------------------------------------------------------|
D-------------------------------------------------------2-4-2-5-| ulang
A---------5-3---------3-2---------5-3---------3-2-2-3-5---------|  2 X
E-0-0-0-0-----0-0-0-0-----0-0-0-0-----0-0-0-0-------------------|

G---------------|
D-0-------------|
A---3-2-0-------|
E---------3-2-0-|

G-------------------------------------------------------
D-------------------------------------------------------
A-------------------------------------------------------
E-0-0-0-0-0-0-0-2-3-2-2-2-2-2-2-2-3-2-0-0-0-0-0-0-0-2-3-

G-------------------------------------------------------------|
D-------------------------------------------------------------| ulang
A-------------------2-2-2-2-2-2-2-3-5---------------3-2-------|  2 X
E-2-2-2-2-2-2-2-2-3-------------------5-5-5-5-5-5-5-----2-3-0-|

G-------------------------------------------------------
D-------------------------------------------------------
A-------------------------------------------------------
E-0-0-0-0-0-0-0-2-3-2-2-2-2-2-2-2-3-2-0-0-0-0-0-0-0-2-3-

G-------------------------------------------------------------|
D-------------------------------------------------------------| ulang
A-------------------2-2-2-2-2-2-2-3-5---------------3-2-------|  8 X
E-2-2-2-2-2-2-2-2-3-------------------5-5-5-5-5-5-5-----2-3-0-|

G-----------------------------------|
D-----------------------------------| ulang
A---------------------------------2-|  3 X
E-0-0-0-0-0-0-0-0-1-0-0-0-0-0-1-3---|

G-------------------------------------------|
D-------------------------------------------|
A-------------------------------------------|
E-0-0-0-0-0-0-0-0-1-0-0-0-0-0-0-3-3-3-1-1-1-|

G-----------------------------------|
D-----------------------------------| ulang
A---------------------------------2-|  3 X
E-0-0-0-0-0-0-0-0-1-0-0-0-0-0-1-3---|

G-----------------------------------------------------|
D-----------------------------------------------------|
A-----------------------------------2-3-3-3-5-3-2-5-3-|
E-0-0-0-0-0-0-0-0-1-0-0-0-0-0-0-1-3-------------------|

G--------------------------------------------------------|
D--------------------------------------------------------| ulang
A-2-2-2-2-3-2-0-2-3-2-2-2-2-3-2-0-2-3-0-0-0-0-2-0---0--3-|  4 X
E-------------------------------------------------3------|

G--------------------------------------------------------------|
D--------------------------------------------------------------| ulang
A-2-2-2-2-2-3-2-0-2-3-2-2-2-2-2-3-2-0-2-3-0-0-0-0-0-2-0---0--3-|  4 X
E-------------------------------------------------------3------|

G-------------------------------------------------------
D-------------------------------------------------------
A-------------------------------------------------------
E-0-0-0-0-0-0-0-2-3-2-2-2-2-2-2-2-3-2-0-0-0-0-0-0-0-2-3-

G-----------------------------------------------------------|
D-----------------------------------------------------------| ulang
A-------------------2-2-2-2-2-2-2-3-5---------------3-2-----|  2 X
E-2-2-2-2-2-2-2-2-3-------------------5-5-5-5-5-5-5-----2-3-|

G---------------------------------------------------------|
D--------------------------------------------------------|
A-------------------------------------------------------|
E-5-5-5-5-5-5-5-7-8-7-7-7-7-7-7-7-8-7-5-5-5-5-5-5-5-7-8---------------------------|

G------------------------------------------------------------------------------|
D------------------------------------------------------------------------------|
A-------------------7-7-7-7-7-7-7-8-10-------------------8-7---------0-2-3-2-0-|
E-7-7-7-7-7-7-7-7-8--------------------10-10-10-10-10-10-----7-8-5-5-----------|

G---------------------------------------------------------|
D---------------------------------------------------------| ulang
A-----0-2-3-2-0-----0-2-3-2-0-----0-2-3-2-0-----0-2-3-2-0-|  2 X
E-1-1-----------0-0-----------3-3-----------5-5-----------|

G-----------------------------------------------------------------|
D-----------------------------------------------------------------| ulang
A-----------------------------------------------------------------|  2 X
E-1-1-1-1-1-1-1-1-0-0-0-0-0-0-0-0-3-3-3-3-3-3-3-3-5-5-5-5-5-5-5-5-|

solo gitar :

G-----------------------------------------------------------------
D-----------------------------------------------------------------
A-----------------------------------------------------------------
E-1-1-1-1-1-1-1-1-0-0-0-0-0-0-0-0-3-3-3-3-3-3-3-3-5-5-5-5-5-5-5-5-

G-------------------------------------------------------------|
D-------------------------------------------------------------| ulang
A-------------------------------------------------------5-----|  2 X
E-1-1-1-1-1-1-1-1-0-0-0-0-0-0-0-0-3-3-3-3-3-3-3-3-5-7-8---8-7-|

G-----------------------------------------------------------------|
D-----------------------------------------------------------------| ulang
A-----------------------------------------------------------------|  3 X
E-1-1-1-1-1-1-1-1-0-0-0-0-0-0-0-0-3-3-3-3-3-3-3-3-5-5-5-5-5-5-5-5-|

G-----------------------------------|
D-----------------------------------| ulang
A---------------------------------2-|  3 X
E-0-0-0-0-0-0-0-0-1-0-0-0-0-0-1-3---|

G-------------------------------------------|
D-------------------------------------------|
A-------------------------------------------|
E-0-0-0-0-0-0-0-0-1-0-0-0-0-0-0-3-3-3-1-1-1-|

G-----------------------------------|
D-----------------------------------| ulang
A---------------------------------2-|  3 X
E-0-0-0-0-0-0-0-0-1-0-0-0-0-0-1-3---|

G-------------------------------------------|
D-------------------------------------------|
A-------------------------------------------|
E-0-0-0-0-0-0-0-0-1-0-0-0-0-0-0-3-3-3-1-1-1-|

G-----------------------------------|
D-----------------------------------| ulang
A---------------------------------2-|  3 X
E-0-0-0-0-0-0-0-0-1-0-0-0-0-0-1-3---|

G-----------------------------------------------------|
D-----------------------------------------------------|
A-----------------------------------2-3-3-3-5-3-2-5-3-|
E-0-0-0-0-0-0-0-0-1-0-0-0-0-0-0-1-3-------------------|

G-------------------------------------------------------|
D-------------------------------------------------------|
A-2-2-2-2-3-2-0-2-3-2-2-2-2-3-2-0-2-3-0-0-0-0-2-0---0-3-|
E-------------------------------------------------3-----|

G-------------------------------------------------------------------------|
D-------------------------------------------------------------------------|
A-2-2-2-2-3-2-0-2-3-2-2-2-2-3-2-0-2-3-0-0-0-0-----------------------------|
E---------------------------------------------3-3-1-1-0-0-0-0-0-0-0-0-1-3-|

G---------------------------------------------------------|
D---------------------------------------------------------|
A-2-2-2-2-3-2-0-2-3-2-2-2-2-3-2-0-2-3-5-5-5-5-5-5-0-0-3-3-|
E---------------------------------------------------------|

G-----------------------------------------------------|
D-----------------------------------------------------|
A-2-2-2-2-3-2-0-2-3-2-2-2-2-3-2-0-2h3-3-3-3-3-5-5-3-3-|
E-----------------------------------------------------|

G-------------------------------------------------------|
D-------------------------------------------------------|
A-2-2-2-2-3-2-0-2-3-2-2-2-2-3-2-0-2-3-0-0-0-0-2-0---0-3-|
E-------------------------------------------------3-----|

G-------------------------------------------------------------------------|
D-------------------------------------------------------------------------|
A-2-2-2-2-3-2-0-2-3-2-2-2-2-3-2-0-2-3-0-0-0-0-----------------------------|
E---------------------------------------------3-3-1-1-0-0-0-0-0-0-0-0-1-3-|

G---------------------------------------------------------|
D---------------------------------------------------------|
A-2-2-2-2-3-2-0-2-3-2-2-2-2-3-2-0-2-3-5-5-5-5-5-5-0-0-3-3-|
E---------------------------------------------------------|

G-----------------------------------------------------|
D-----------------------------------------------------|
A-2-2-2-2-3-2-0-2-3-2-2-2-2-3-2-0-2h3-3-3-3-3-5-5-3-3-|
E-----------------------------------------------------|

G-------------------------------------------------------
D-------------------------------------------------------
A-2-2-2-2-3-2-0-2-3-2-2-2-2-3-2-0-2-3-0-0-0-0-2-0-----3-
E-------------------------------------------------3-3---


G-----------------------------3-2-------------|
D-------------------3-2-2-2-2-----0-----------|
A-2-2-2-2-3-2-2-2-2-----------------3-2-------|
E---------------------------------------3-2-0-|

* tamat

* thanx to kay_rules, bapak, manan, ted,
  dan semua budak-budak metal scc utm
* kalau nak tab gitar lead dan rythm cromok korang taip je
  kay_rules kat 'find' mana-mana...

amin_ns@hotmail.com