Make your own free website on Tripod.com

Maram Perapu Kapunden Paran Sekeper-Cromok (bass tab)


Tajuk   : Maram Perapu Kapunden Paran Sekeper
Artis   : Cromok
Album   : Yours Truly
Bassist : Shamsudin Ali (Sam Cromok) - finggering

intro :

G---------------------------------|
D---------------------------------|
A---3-2-3-------3---3-2-3---------|
E-5-------5-3-2---5-------5-3-2-3-|


G---------------------------------------------------
D---------------------------------------------------
A-------------------------------------3-2-----------
E-0-0-0-0-3-2-3-0-0-0-0-3-2-3-0-0-0-0-----3-2-0-0-0-


G---------------------------|
D---------------------------|
A-----------------3-2-------|
E-0-3-2-3-0-0-0-0-----3-2-0-|


G---------------------------------|
D---------------------------------| ulang
A-------------------------------0-|  4 X
E-3-2-3-5-3-2-3-0-3-2-3-5-3-2-3---|

G---------------------------------|
D---------------------------------|
A---3-2-3-------3---3-2-3---------|
E-5-------5-3-2---5-------5-3-2-3-|


G---------------------------------------------------
D---------------------------------------------------
A-------------------------------------3-2-----------
E-0-0-0-0-3-2-3-0-0-0-0-3-2-3-0-0-0-0-----3-2-0-0-0-


G---------------------------|
D---------------------------|
A-----------------3-2-------|
E-0-3-2-3-0-0-0-0-----3-2-0-|


G---------------------------------|
D---------------------------------| ulang
A-------------------------------0-|  3 X
E-3-2-3-5-3-2-3-0-3-2-3-5-3-2-3---|

G-------------------------|
D-------------------------|
A-------------------------|
E-3-2-3-5-3-2-3-0-3-2-3-0-|

* tamat

* thanx to kay_rules, bapak, manan, ted,
  dan semua budak-budak metal scc utm
* kalau nak tab gitar lead dan rythm cromok korang taip je
  kay_rules kat 'find' mana-mana...

amin_ns@hotmail.com