Make your own free website on Tripod.com

Little One-Cromok (bass tab)


Tajuk   : Little One
Artis   : Cromok
Album   : Yours Truly
Bassist : Shamsudin Ali (Sam Cromok) - finggering

intro : plucking gitar akustik
	lepas 2 round baru masuk bass

G---------------------------------|
D---------------------------------| ulang
A-2-2-2-2-2-2-2-2-3-3-3-3-3-3-3-3-|  8 X
E---------------------------------|

G---------------------------------------------------------------|
D---4-5-4---5-4-5---4-5-4---5-4-5---4-5-4---5-4-5---4-5-4---4-4-|
A-2-------2-------3-------3-------2-------2-------3-------3-----|
E---------------------------------------------------------------|

G-----------------|
D-----------------|
A-----------------|
E-7-7-7-7-7-7-7-7-|

G---------------------------------
D---------------------------------
A---------------------------------
E-7-7-7-7-8-8-8-8-5-5-5-5-7-7-7-7-

G---------------------------------|
D---------------------------------|
A---------------------------------|
E-7-7-7-7-8-8-8-8-5-5-5-5-0-0-0-0-|

G---------------------------------
D---------------------------------
A---------------------------------
E-7-7-7-7-8-8-8-8-5-5-5-5-7-7-7-7-

G-----------------------------------------------------------------------------|
D-----------------------------------------------------------------------------|
A-----------------------------------------------------------------------------|
E-7-7-7-7-8-8-8-8-5-5-5-5-7-7-7-7-0-0-0-0-0-0-0-0-0-0-0-0-0-0-0-0-0-0-0-0-0-0-|

G---------------------------------
D---------------------------------
A---------------------------------
E-7-7-7-7-8-8-8-8-5-5-5-5-7-7-7-7-

G---------------------------------|
D---------------------------------|
A---------------------------------|
E-7-7-7-7-8-8-8-8-5-5-5-5-0-0-0-0-|

G---------------------------------
D---------------------------------
A---------------------------------
E-7-7-7-7-8-8-8-8-5-5-5-5-7-7-7-7-

G-----------------------------------------------------------------------------|
D-----------------------------------------------------------------------------|
A-----------------------------------------------------------------------------|
E-7-7-7-7-8-8-8-8-5-5-5-5-7-7-7-7-0-0-0-0-0-0-0-0-0-0-0-0-0-0-0-0-0-0-0-0-0-0-|

G-------------------------------------------------|
D-------------------------------------------------| ulang
A-------------------------------------------------|  4 X
E-0-0-0-0-0-0-0-0-0-0-0-0-0-0-2-3-2-3-0-2-3-2-3-0-|

G-----------------------------------------------------------------|
D-----------------------------------------------------------------|
A-----------------------------------------------------------------|
E-7-7-7-7-7-7-7-7-8-8-8-8-8-8-8-8-5-5-5-5-5-5-5-5-7-7-7-7-7-7-7-7-|

G-----------------------------------------------------------------|
D-----------------------------------------------------------------|
A-----------------------------------------------------------------|
E-7-7-7-7-7-7-7-7-8-8-8-8-8-8-8-8-5-5-5-5-5-5-5-5-0-0-0-0-0-0-0-0-|

G-----------------------------------------------------------------|
D-----------------------------------------------------------------|
A-----------------------------------------------------------------|
E-7-7-7-7-7-7-7-7-8-8-8-8-8-8-8-8-5-5-5-5-5-5-5-5-7-7-7-7-7-7-7-7-|

G-------------------------------------------------
D-------------------------------------------------
A-------------------------------------------------
E-7-7-7-7-7-7-7-7-8-8-8-8-8-8-8-8-5-5-5-5-5-5-5-5-

G---------------------------------------------|
D---------------------------------------------|
A---------------------------------------------|
E-0-0-0-0-0-0-0-0-0-0-0-0-0-0-0-0-0-0-0-0-0-0-|

G-----------------------------------------------------------------|
D-----------------------------------------------------------------|
A-----------------------------------------------------------------|
E-7-7-7-7-7-7-7-7-8-8-8-8-8-8-8-8-5-5-5-5-5-5-5-5-7-7-7-7-7-7-7-7-|

G-----------------------------------------------------------------|
D-----------------------------------------------------------------|
A-----------------------------------------------------------------|
E-7-7-7-7-7-7-7-7-8-8-8-8-8-8-8-8-5-5-5-5-5-5-5-5-0-0-0-0-0-0-0-0-|

G-----------------------------------------------------------------|
D-----------------------------------------------------------------|
A-----------------------------------------------------------------|
E-7-7-7-7-7-7-7-7-8-8-8-8-8-8-8-8-5-5-5-5-5-5-5-5-7-7-7-7-7-7-7-7-|

G-------------------------------------------------
D-------------------------------------------------
A-------------------------------------------------
E-7-7-7-7-7-7-7-7-8-8-8-8-8-8-8-8-5-5-5-5-5-5-5-5-

G---------------------------------------------|
D---------------------------------------------|
A---------------------------------------------|
E-0-0-0-0-0-0-0-0-0-0-0-0-0-0-0-0-0-0-0-0-0-0-|

G-----------------------------------------------------------------|
D-----------------------------------------------------------------|
A-----------------------------------------------------------------|
E-7-7-7-7-7-7-7-7-8-8-8-8-8-8-8-8-5-5-5-5-5-5-5-5-7-7-7-7-7-7-7-7-|

G-----------------------------------------------------------------|
D-----------------------------------------------------------------|
A-----------------------------------------------------------------|
E-7-7-7-7-7-7-7-7-8-8-8-8-8-8-8-8-5-5-5-5-5-5-5-5-0-0-0-0-0-0-0-0-|

G-----------------------------------------------------------------|
D-----------------------------------------------------------------|
A-----------------------------------------------------------------|
E-7-7-7-7-7-7-7-7-8-8-8-8-8-8-8-8-5-5-5-5-5-5-5-5-7-7-7-7-7-7-7-7-|

G-------------------------------------------------
D-------------------------------------------------
A-------------------------------------------------
E-7-7-7-7-7-7-7-7-8-8-8-8-8-8-8-8-5-5-5-5-5-5-5-5-

G---------------------------------------------|
D---------------------------------------------|
A---------------------------------------------|
E-0-0-0-0-0-0-0-0-0-0-0-0-0-0-0-0-0-0-0-0-0-0-|

G-----------------------------------------------------------------|
D-----------------------------------------------------------------|
A-----------------------------------------------------------------|
E-7-7-7-7-7-7-7-7-8-8-8-8-8-8-8-8-5-5-5-5-5-5-5-5-7-7-7-7-7-7-7-7-|

G-----------------------------------------------------------------|
D-----------------------------------------------------------------|
A-----------------------------------------------------------------|
E-7-7-7-7-7-7-7-7-8-8-8-8-8-8-8-8-5-5-5-5-5-5-5-5-0-0-0-0-0-0-0-0-|

G-----------------------------------------------------------------|
D-----------------------------------------------------------------|
A-----------------------------------------------------------------|
E-7-7-7-7-7-7-7-7-8-8-8-8-8-8-8-8-5-5-5-5-5-5-5-5-7-7-7-7-7-7-7-7-|

G-------------------------------------------------
D-------------------------------------------------
A-------------------------------------------------
E-7-7-7-7-7-7-7-7-8-8-8-8-8-8-8-8-5-5-5-5-5-5-5-5-

G-----------------------|
D-----------------------|
A-----------------------|
E-0-0-0-0-0-0-0-0-0-0-0-|

* tamat - bunyi bayi nangis

* thanx to kay_rules, bapak, manan, ted,
  dan semua budak-budak metal scc utm
* kalau nak tab gitar lead dan rythm cromok korang taip je
  kay_rules kat 'find' mana-mana...

amin_ns@hotmail.com