Make your own free website on Tripod.com

Dari Kaca Mata (Solo)

Petunjuk:
/        slide kepada chord tinggi
\        slide kepada chord rendah
h        hammer on
p        pull off
b        bend
rb      release bend
t        tap(guna jari atau pick)
P.M  palm mute
*        artifical harmonic
(mana-mana petunjuk yg tak difahami, lihat bahagian "Teknik & Skills")


                                           p.m   p.m        
e|-----------------------------------------------------| 
B|-5-7-8-7-8b-*-rb-------------------------------------| 
G|----------------------------------7------------------| 
D|-------------------5-7-9-10-9--/9---10-9--7----------| 
A|--------------------------------------------10--10-7-| 
E|-----------------------------------------------------| 

 phrygian mode
e|--------------------------7--------------------------| 
B|-------------------7-8-10---10-8-7-------------------| 
G|---------------7-9-----------------9-7---------------| 
D|--------7-9-10-------------------------10-9-7--------| 
A|-7-9-10---------------------------------------10-9-7-| 
E|-----------------------------------------------------| 

e|----------------------------------------------------------------------------------| 
B|----------------------------------------------------------------------------------| 
G|----------------------------------------------------------------------------------| 
D|-9--9-9-9--9-9-9--9-9-9-10--9--9-9-9--9-9-9--9-9-9--9-9-9--9-9--------------------| 
A|-9--9-9-9--9-9-9--9-9-9-10--9--9-9-9--9-9-9--9-9-9--9-9-9--9-9--------------------| 
E|-7--7-7-7--7-7-7--7-7-7-8---7--7-7-7--7-7-7--7-7-7--7-7-7--7-7-7-8-7-8-10-8-7-8-7-| 
   ............3x...........

   ...........................p.m...................................
e|-------------------------------------------------------------------| 
B|-------------------------------------------------------------------| 
G|---------------------------------------------------------7-----7-9-| 
D|---------------------------------7-----7-9--7-9-10--9-10----10-----| 
A|-7-9-10--7-9-10--7--7-9-10--9-10----10-----------------------------| 
E|-------------------------------------------------------------------| 

   p.m
e|---------------------------------7-----7-10-8-7----7------------------| 
B|-----7----7-8--7-8--7-8-10--8-10----10----------10---10-8-7-8-7-------| 
G|-7-9----9-------------------------------------------------------9-7-7-| 
D|----------------------------------------------------------------------| 
A|----------------------------------------------------------------------| 
E|----------------------------------------------------------------------| 

2nd solo                          3rd solo
                                  ...............p.m..............
e|-------------------------------|-----------------------------------| 
B|-5-----------------------------|--------------5--5-----------------| 
G|---7-5--7-5-4--5-4----4--------|-0-0-5--0-0-5------7-5-4-5-4-------| 
D|-------------------7----7-5--5-|-----------------------------7-5-7-| 
A|-----------------------------3-|-----------------------------------| 
E|-------------------------------|-----------------------------------| 


(Segala komen atau soalan.... e-mail aloymetal@hotmail.com)