Make your own free website on Tripod.com

IC-Cromok (bass tab)


Tajuk   : IC
Artis   : Cromok
Album   : Yours Truly
Bassist : Shamsudin Ali (Sam Cromok) - finggering

G-----------------------------------------------------|
D-----------------------------------------------------| ulang
A-------------------------------------------------5-7-|  4 X
E-0-0-0-0-0-0-0-0-0-0-0-0-0-0-0-0-0-0-0-0-0-0-0-0-----|


G---------------------------------------------|
D---------------------------------------------|
A-7-7-7-7---5-5-5-5---3-3-3-3---3-2-5-3-2-3-2-|
E---------------------------------------------|

G-----------------------------------------------------|
D-----------------------------------------------------| ulang
A-------------------------------------------------5-7-|  4 X
E-0-0-0-0-0-0-0-0-0-0-0-0-0-0-0-0-0-0-0-0-0-0-0-0-----|


G---------------------------------------------|
D---------------------------------------------|
A-7-7-7-7---5-5-5-5---3-3-3-3---3-2-5-3-2-3-2-|
E---------------------------------------------|

G-------------------------|
D---------3-2---2---------| ulang
A-------------3---3-2-3-2-|  4X
E-0-0-0-0-----------------|


G-----------------------------------------------|
D---------3-2---2-------------------------------|
A-------------3---3-2-3-2-1-1-1-1---------------|
E-0-0-0-0-------------------------1-1-1-1-3-1-0-|

G-------------------------|
D---------3-2---2---------| ulang
A-------------3---3-2-3-2-|  4X
E-0-0-0-0-----------------|


G---------------------------------------------|
D---------3-2---2-----------------------------|
A-------------3---3-2-3-2-1-1-1-1-------------|
E-0-0-0-0-------------------------1-1-1-1-3-1-|

G---------------------------------------------------------------------------|
D-----------------------------------------------------------3-2---2---------|
A---------------------------2-----------------------------------3---3-2-3-2-|
E-0-0-1h3-1-3-3-1-0-0-1h3-1---3-1-0-0-1h3-1-3-3-1-0-0-1h3-1-----------------|

G-------------------------|
D---------3-2---2---------| ulang
A-------------3---3-2-3-2-|  4X
E-0-0-0-0-----------------|


G---------------------------------------------|
D---------3-2---2-----------------------------|
A-------------3---3-2-3-2-1-1-1-1-------------|
E-0-0-0-0-------------------------1-1-1-1-3-1-|

G-------------------------|
D---------3-2---2---------| ulang
A-------------3---3-2-3-2-|  4X
E-0-0-0-0-----------------|


G---------------------------------------------|
D---------3-2---2-----------------------------|
A-------------3---3-2-3-2-1-1-1-1-------------|
E-0-0-0-0-------------------------1-1-1-1-3-1-|

G-----------------------------------------------------------------|
D-----------------------------------------------------------------|
A---------------------------2-------------------------------2-----|
E-0-0-1h3-1-3-3-1-0-0-1h3-1---3-1-0-0-1h3-1-3-3-1-0-0-1h3-1---3-1-|

G-----------------------------------|
D-----------------------------------| ulang
A-7-7-7-7---5-5-5-5---3-3-3-3---0-2-|  2 X
E-----------------------------------|

solo gitar:

G-----------------------------------------------------|
D-----------------------------------------------------| ulang
A-------------------------------------------------5-7-|  4 X
E-0-0-0-0-0-0-0-0-0-0-0-0-0-0-0-0-0-0-0-0-0-0-0-0-----|


G---------------------------------------|
D---------------------------------------| ulang
A-7-7-7-7---5-5-5-5---3-3-3-3-------3-2-|  4 X
E-------------------------------0-0-----|

G-----------------------------------------------------|
D-----------------------------------------------------| ulang
A-------------------------------------------------5-7-|  4 X
E-0-0-0-0-0-0-0-0-0-0-0-0-0-0-0-0-0-0-0-0-0-0-0-0-----|


G---------------------------------------|
D---------------------------------------| ulang
A-7-7-7-7---5-5-5-5---3-3-3-3-------3-2-|  4 X
E-------------------------------0-0-----|

G-------------------------|
D---------3-2---2---------| ulang
A-------------3---3-2-3-2-|  4X
E-0-0-0-0-----------------|


G---------------------------------------------|
D---------3-2---2-----------------------------|
A-------------3---3-2-3-2-1-1-1-1-------------|
E-0-0-0-0-------------------------1-1-1-1-3-1-|

G-------------------------|
D---------3-2---2---------| ulang
A-------------3---3-2-3-2-|  4X
E-0-0-0-0-----------------|


G---------------------------------------------|
D---------3-2---2-----------------------------|
A-------------3---3-2-3-2-1-1-1-1-------------|
E-0-0-0-0-------------------------1-1-1-1-3-1-|

G-----------------------------------------------------------------|
D-----------------------------------------------------------------|
A---------------------------2-------------------------------2-----|
E-0-0-1h3-1-3-3-1-0-0-1h3-1---3-1-0-0-1h3-1-3-3-1-0-0-1h3-1---3-1-|

G-----------------------------------|
D-----------------------------------| ulang
A-7-7-7-7---5-5-5-5---3-3-3-3---0-1-|  2 X
E-----------------------------------|


G-----------------------------------|  ulang
D-----------------------------------|  sampai
A-7-7-7-7---5-5-5-5---3-3-3-3---0-2-|  boring
E-----------------------------------| (fading)

* tamat

* thanx to kay_rules, bapak, manan, ted,
  dan semua budak-budak metal scc utm
* kalau nak tab gitar lead dan rythm cromok korang taip je
  kay_rules kat 'find' mana-mana...

amin_ns@hotmail.com