Make your own free website on Tripod.com

Farewell-Cromok (bass tab)



Tajuk   : Farewell
Artis   : Cromok
Album   : Yours Truly
Bassist : Shamsudin Ali (Sam Cromok) - finggering

intro :

G---------------------------------------------------------|
D---------------------------------------------------------| ulang
A--------7-9-7-------------7-9-7-------------7-9-7--------|  2 X
E-7-9-10-------10-9-7-9-10-------10-9-7-9-10-------10-9-5-|


G-------------------------------------------------------------------
D-------------------------------------------------------------------
A---------------------4-4-5-5-5-5-5-5-5-5-5-5-4-4-----------4-4-4-4-
E-7-7-7-7-7-7-7-7-7-7-----------------------------5-5-5-5-5---------

G-----------------------|
D-----------------------| ulang
A-----------------------|  2 X
E-5-7-7-7-7-7-7-7-7-7-7-|

G-------------------------------------------------
D-------------------------------------------------
A-------------------------5-5-5-5-5-5-5-5-5-5-5-5-
E-7-7-7-7-7-7-7-7-7-7-7-7-------------------------

G-------------------------------------------------|
D-------------------------------------------------| ulang
A-------------------------------------------------|  4 X
E-5-5-5-5-5-5-5-5-5-5-5-5-7-7-7-7-7-7-7-7-7-7-7-7-|

G-------------------------------------------------
D-------------------------------------------------
A-------------------------5-5-5-5-5-5-5-5-5-5-5-5-
E-7-7-7-7-7-7-7-7-7-7-7-7-------------------------

G---------------------------|
D---------------------------|
A---------------------------|
E-5-5-5-5-5-5-5-5-5-5-5-5-5-|

G-------------------------------------------------------------------
D-------------------------------------------------------------------
A---------------------4-4-5-5-5-5-5-5-5-5-5-5-4-4-----------4-4-4-4-
E-7-7-7-7-7-7-7-7-7-7-----------------------------5-5-5-5-5---------

G-----------------------|
D-----------------------| ulang
A-----------------------|  2 X
E-5-7-7-7-7-7-7-7-7-7-7-|

G-------------------------------------------------
D-------------------------------------------------
A-------------------------------------------------
E-7-7-7-7-7-7-7-7-7-7-7-7-5-5-5-5-5-5-5-5-5-5-5-5-

G-------------------------------------------------|
D-------------------------------------------------|
A-5-5-5-5-5-5-5-5-5-5-5-5-------------------------|
E-------------------------7-7-7-7-7-7-7-7-7-7-7-7-|

G-------------------------------------------------
D-------------------------------------------------
A-------------------------------------------------
E-7-7-7-7-7-7-7-7-7-7-7-7-5-5-5-5-5-5-5-5-5-5-5-5-

G-------------------------------------------------------|
D-------------------------------------------------------|
A-5-5-5-5-5-5-5-5-5-5-5-5---5-7-9-9-9-9-9-9-9-9-9-9-9-9-|
E-------------------------------------------------------|

solo gitar :

G-------------------------------------------------
D-------------------------------------------------
A-4-4-4-4-4-4-4-4-4-4-4-4-------------------------
E-------------------------5-5-5-5-5-5-5-5-5-5-5-5-

G-------------------------------------------------|
D-------------------------------------------------| ulang
A-------------------------------------------------|  2 X
E-7-7-7-7-7-7-7-7-7-7-7-7-4-4-4-4-4-4-4-4-4-4-4-4-|

G-------------------------------------------------
D-------------------------------------------------
A-------------------------------------------------
E-2-2-2-2-2-2-2-2-2-2-2-2-5-5-5-5-5-5-5-5-5-5-5-5-

G-------------------------------------------------|
D-------------------------------------------------|
A-------------------------------------------------|
E-4-4-4-4-4-4-4-4-4-4-4-4-7-7-7-7-7-7-7-7-7-7-7-7-|


G-------------------------------------------------
D-------------------------------------------------
A-4-4-4-4-4-4-4-4-4-4-4-4-------------------------
E-------------------------5-5-5-5-5-5-5-5-5-5-5-5-

G-------------------------------------------------|
D-------------------------------------------------| ulang
A-------------------------------------------------|  2 X
E-7-7-7-7-7-7-7-7-7-7-7-7-4-4-4-4-4-4-4-4-4-4-4-4-|

G-------------------------------------------------
D-------------------------------------------------
A-------------------------------------------------
E-2-2-2-2-2-2-2-2-2-2-2-2-5-5-5-5-5-5-5-5-5-5-5-5-

G-------------------------------------------------|
D-------------------------------------------------|
A-------------------------------------------------|
E-4-4-4-4-4-4-4-4-4-4-4-4-7-7-7-7-7-7-7-7-7-7-7-7-|

G---------------------------------------------------------|
D---------------------------------------------------------| ulang
A--------7-9-7-------------7-9-7-------------7-9-7--------|  2 X
E-7-9-10-------10-9-7-9-10-------10-9-7-9-10-------10-9-5-|

G-------------------------------------------------
D-------------------------------------------------
A-------------------------5-5-5-5-5-5-5-5-5-5-5-5-
E-7-7-7-7-7-7-7-7-7-7-7-7-------------------------

G-------------------------------------------------|
D-------------------------------------------------| ulang
A-------------------------------------------------|  3 X
E-5-5-5-5-5-5-5-5-5-5-5-5-7-7-7-7-7-7-7-7-7-7-7-7-|

G----------------------------------------------------------
D----------------------------------------------------------
A------------------------------5---5-5-5-5-5-5-5-5-5-5-5-5-
E-7-7-7-7-7-7-7-7-7-7-7-7---5------------------------------

G-------------------------|
D-------------------------|
A-------------------------|
E-7-7-7-7-7-7-7-7-7-7-7-7-|


G-------------------------------------------------
D-------------------------------------------------
A-------------------------5-5-5-5-5-5-5-5-5-5-5-5-
E-7-7-7-7-7-7-7-7-7-7-7-7-------------------------

G---------------------------|
D---------------------------|
A---------------------------|
E-5-5-5-5-5-5-5-5-5-5-5-5-5-|

G-------------------------------------------------------------------
D-------------------------------------------------------------------
A---------------------4-4-5-5-5-5-5-5-5-5-5-5-4-4-----------4-4-4-4-
E-7-7-7-7-7-7-7-7-7-7-----------------------------5-5-5-5-5---------

G-----------------------|  ulang
D-----------------------|  sampai
A-----------------------|  boring
E-5-7-7-7-7-7-7-7-7-7-7-| (fading)

* tamat

* thanx to kay_rules, bapak, manan, ted,
  dan semua budak-budak metal scc utm
* kalau nak tab gitar lead dan rythm cromok korang taip je
  kay_rules kat 'find' mana-mana...

amin_ns@hotmail.com