Make your own free website on Tripod.com

Somewhere Anywhere-Cromok (bass tab)


Tajuk   : Somewhere Anywhere
Artis   : Cromok
Album   : Yours Truly
Bassist : Shamsudin Ali (Sam Cromok) - finggering

G-----------------------------------|
D-----------------------------------| ulang
A-7-7-7-8-7-5-5-5-------------------|  2 X
E-----------------8-8-7-7-8-7-5-5-5-|

G-------------------------------|
D-----------------------5-7-7-7-|
A-----------------5-5-7---------|
E-5-5-5-5-7-8-8-8---------------|

G-----------------------------------|
D-7-7-7-8-7-5-5-5-------------------| ulang
A-----------------8-8-7-7-8-7-5-5-5-|  2 X
E-----------------------------------|

G---------------------------|
D---------------------------|
A---------------------------|
E-0-0-0-0-2-3-3-3-5-7-5-3-0-|

G---------------------------------------------|
D---------------------------------------------| ulang
A-7-------7-------7-------7-------7-8-5-7-8-5-|  3 X
E---0-0-0---0-0-0---0-0-0---0-0-0-------------|

G---------------------------------------|
D---------------------------------------|
A-7-------7-------7-------7-------7-8-5-|
E---0-0-0---0-0-0---0-0-0---0-0-0-------|

G-----------------------------|
D-----------------------------| ulang
A-------2-------3-------2-3-2-|  2 X
E-0-0-0---0-0-0---0-0-0-------|

G---------------------------------------------|
D---------------------------------------------| ulang
A-7-------7-------7-------7-------7-8-5-7-8-5-|  3 X
E---0-0-0---0-0-0---0-0-0---0-0-0-------------|

G---------------------------------------|
D---------------------------------------|
A-7-------7-------7-------7-------7-8-5-|
E---0-0-0---0-0-0---0-0-0---0-0-0-------|

G-----------------------------|
D-----------------------------|
A-------2-------3-------2-3-2-|
E-0-0-0---0-0-0---0-0-0-------|


G---------------------------|
D---------------------------|
A-------2-------3-------2-3-|
E-0-0-0---0-0-0---0-0-0-----|

G--------------------------------|
D--------------------------------| ulang
A-----------------7-7-8-10-8-7-8-|  6 X
E-0-0-0-0-0-0-0-0-0--------------|

G---------------------------------------|
D---------------------------------------| ulang
A-------7-------7-------7-------7-8-5-7-|  4 X
E-0-0-0---0-0-0---0-0-0---0-0-0---------|

G-----------------------------|
D-----------------------------| ulang
A-------2-------3-------2-3-2-|  2 X
E-0-0-0---0-0-0---0-0-0-------|

G---------------------------------------|
D---------------------------------------| ulang
A-------7-------7-------7-------7-8-5-7-|  4 X
E-0-0-0---0-0-0---0-0-0---0-0-0---------|

G-----------------------------|
D-----------------------------|
A-------2-------3-------2-3-2-|
E-0-0-0---0-0-0---0=0-0-------|

G---------------------------------------|
D---------------------------------------|
A-------2-------3-------2-3-2-----------|
E-0-0-0---0-0-0---0-0-0-------0-0-0-0-0-|

G---------------------------------------------------------------------
D---------------------------------------------------------------------
A-7-7-7-7-8-7----7----8-7~-8-7----7-8-7~-10-10-10-8-8-8-7-7-7-5-5-5-5-
E-------------10---10----------10-------------------------------------

G---------------------------------------------------------------|
D---------------------------------------------------------------| ulang
A-5-5-5-5-7-5---5---7-5~-7-5---5-7-5~-8-8-8-7-7-7-5-5-5-3-3-3-3-|  3 X
E-------------8---8----------8----------------------------------|

G--------------------------------------------------------
D--------------------------------------------------------
A-10-10-10-10-10-10-10-10-10-10-10-7-7-7-7-7-7-7-7-7-7-7-
E--------------------------------------------------------

G---------------------------------------------|
D---------------------------------------------|
A-5-5-5-5-5-5-5-5-5-5-5-8-8-8-8-8-8-8-8-8-8-8-|
E---------------------------------------------|

G---------------------------------------|
D-----------------------7p6---7p6---7p6-|
A-8---7---8---7---8---7-----7-----8-----|
E---------------------------------------|

G-----------------------------------------------------
D-----------7-7-7-5-7-5---------------7-7-7-5-7-5-----
A-7-7-7-7-7-------------8-7-8-8-8-8-8-------------8-7-
E-----------------------------------------------------

G-------------------------------------------------------------|
D-----------7-7-7-5-7-5---------------7-7-7-5-7-5-----5-------|
A-7-7-7-7-7-------------8-7-8-8-8-8-8-------------8-7---8-7-5-|
E-------------------------------------------------------------|

G-----------------------------------------------------
D-----------------------------------------------------
A-----------7-7-7-5-7-5---------------7-7-7-5-7-5-----
E-7-7-7-7-7-------------8-7-8-8-8-8-8-------------8-7-

G-------------------------------------------------------------|
D-------------------------------------------------------------|
A-----------7-7-7-5-7-5---------------7-7-7-5-7-5-----5-------|
E-7-7-7-7-7-------------8-7-8-8-8-8-8-------------8-7---8-7-5-|

G---------------------------------------------
D---------------------------------------------
A---------------------------------------------
E-7-7-7-7-7-7-7-7-5-5-5-8-8-8-8-8-8-8-8-5-5-5-

G---------------------------------------|
D---------------------------------------| ulang
A-------10-10-----8-8-------10-10-----8-|  4 X
E-10-10-------8-8-----10-10-------8-8---|

G-------------------------------------|
D-------------------------------------|
A-8-----5-5-----3-3-----2-2-----------|
E---5-5-----3-3-----2-2-----0-0-0-0-0-|

* tamat dengan gitar akustik

* thanx to kay_rules, bapak, manan, ted,
  dan semua budak-budak metal scc utm
* kalau nak tab gitar lead dan rythm cromok korang taip je
  kay_rules kat 'find' mana-mana...

amin_ns@hotmail.com