Make your own free website on Tripod.com

Naive Sick Chasm

Riff 1                           ------a------   --b--                                 
    3x 3x     3x 3x     3x 3x           2x 2x      3x
e|------------------------------|---------------|-------|
B|------------------------------|---------------|-------|
G|------------------------------|---------------|-------|
D|--5--6--5---5--6--5---5--6--5-|--5/6--6--5/6--|--5/6--|
A|--3--3--3---6--6--6---5--5--5-|--5/6--6--5/6--|--5/6--|
E|----------------------6-------|---------------|--3/4--|
Riff 2
    6x  6x 6x  3x
e|------------------|
B|------------------|
G|------8-----------|
D|--10--8--8--------|
A|--10--6--8---3/4--|
E|--8------6---3/4--|
Riff 3         ------a-------  -3b-
    7x  7x 7x                   3x
e|------------|--------------|-------|
B|--8---8--6--|------11-9-8--|-------|
G|--8---8--7--|--7h8---------|-------|
D|--10--8--8--|--------------|--5/6--|
A|--10--6--8--|--------------|--5/6--|
E|--8------6--|--------------|--3/4--|
Riff 4
(setiap chord, strum beberapa kali... ntah berapa kali tah!)
e|----------------------------------------|
B|----------------------------------------|
G|--5-----8-------------------------------|
D|--5--6--8--5----------------------------|
A|--3--6--6--5----------------------------|
E|-----4-----3----------------------------|

Intro:
Riff 1a, Riff 1b
Riff 2
Riff 3 2x

Verse:
Riff 3a 3x, Riff 3b

Chorus:
Riff 4 4x

Riff 1b 2x

Verse:
Riff 3a 3x, riff 3b

Chorus:
Riff 4 4x

Solo:
Riff 1b 4x

Verse:
Riff 3a 3x, Riff 3b

Chorus:
Riff 4 4x

Riff 1b (ulang sampai habis)


Special Thanks to Ajid