Make your own free website on Tripod.com

Misty-Cromok (bass tab)


Tajuk   : Misty
Artis   : Cromok
Album   : Mean Meaner Meanest ( re-recording from Image Of Purity )
Bassist : Shamsudin Ali (Sam Cromok) - finggering

* sorry... kami tak cari yang original dari Image Of Purity
  sebab sound dia tak berapa clear

intro :

G|---------------------------------|
D|---------------------------------|
A|--2---2---2---2------------------|
E|------------------3---3---0---0--|

G|------------------------------------------------------------------|
D|----------------------------------------------------------4-2-----| ulang
A|--2-2-2-2-2-2-2-2-2-2-2-2-2-2-2-3-2-3-2-----------------------3-2-|  8 X
E|----------------------------------------3-3-3-3-3-3-3-3-0---------|

G---------------------------|
D---------------------------| ulang
A-2-5-4---5-4---5-4-----0-2-|  8 X
E-------3-----3-----2-3-----|

G---------------------------|
D---------------------------| ulang
A-2-----4-----5---------0-2-|  8 X
E---3-2---3-2---3-2-2-3-----|

G-------------------------------------------------------------------|
D-------------------------------------------------------------------| ulang
A---------3-3-3-2-2-3-2---------------------5-5-5-3-3-5-3-2-2-2-2-2-|  ? X
E-0-0-0-0---------------5-5-5-5-5-5-0-0-0-0-------------------------|

G-------------------------------------------------------------
D-------------------------------------------------------------
A-7-7-7-7-7-7-7-7-7-7---------------------5-5-5-5-5-5-5-5-5-5-
E---------------------5-5-5-5-5-5-5-5-5-5---------------------

G-------------------------------------------------------------
D-------------------------------------------------------------
A---------------------3-3-3-3-3-3-3-3-3-3---------------------
E-3-3-3-3-3-3-3-3-3-3---------------------5-5-5-5-5-5-5-5-5-5-

G-----------------------------|
D-----------------------------| ulang
A-----------------------------|  ? X
E-7-7-7-7-7-7-7-7-7-7-7-8-5-7-|

G-----------------------------------------|
D-----------------------------------------| ulang
A-7-7-----5-5-----3-3---------------------|  2 X
E-----5-5-----3-3-----5-5-7-7-8-5-7-8-5-7-|

G-------------------------------------------------------------------|
D-------------------------------------------------------------------| ulang
A---------3-3-3-2-2-3-2---------------------5-5-5-3-3-5-3-2-2-2-2-2-|  ? X
E-0-0-0-0---------------5-5-5-5-5-5-0-0-0-0-------------------------|

G---------------------------------------------------------------------|
D---------------------------------------------------------------------|
A-2-2-2-2-2-2-2-2-3-3-3-3-3-3-3-3-2-2-2-2-2-2-2-2-3-3-3-3-3-3-3-3-7-5-|
E---------------------------------------------------------------------|

G---------------------------------------------------------------|
D---------------------------------------------------------7---7-| ulang
A-7-7-7-7-7-7-7-7-7-7-7-8-7-5-------------------------------8---|  4 X
E-----------------------------8-8-7-8-8-8-8-8-8-8-8-8-8-8-------|

G-------------------------|
D-7---7---7---7-----------|
A---5-----------------0-2-|
E-------8---7---5-2-3-----|

G---------------------------|
D---------------------------| ulang
A-2-----4-----5---------0-2-|  8 X
E---3-2---3-2---3-2-2-3-----|

G-------------------------|
D-------------------------|
A-----5-------3-----------|
E-5-------3-------5---7---|

G---------------------|
D-7s9-7------7--------|
A-------10-9---10-9-7-|
E---------------------|

G|------------------------------------------------------------------|
D|----------------------------------------------------------4-2-----|
A|--2-2-2-2-2-2-2-2-2-2-2-2-2-2-2-3-2-3-2-----------------------3-2-|
E|----------------------------------------3-3-3-3-3-3-3-3-0---------|

G|----------------------------------------------------------------------|
D|----------------------------------------------------------4-2---2-----|
A|--2-2-2-2-2-2-2-2-2-2-2-2-2-2-2-3-2-3-2-----------------------3---3-2-|
E|----------------------------------------3-3-3-3-3-3-3-3-0-------------|

* tamat

* thanx to kay_rules, bapak, manan, ted,
  dan semua budak-budak metal scc utm
* kalau nak tab gitar lead dan rythm cromok korang taip je
  kay_rules kat 'find' mana-mana...

amin_ns@hotmail.com