Make your own free website on Tripod.com

Kenapa Apakah

Intro

 (2x tanpa solo, 2x bersama solo 1)|    (bersama solo 1)
                                   |     -------------2x-----------
                                   |     --2x-  --2x-  --2x-
e|---------------------------------|--------------------------------|
B|---------------------------------|--------------------------------|
G|---------------------------------|-----------5-5-5--7-7-7--7-5-4--|
D|---------------5-4------5-4------|----5-5-5--5-5-5--7-7-7--7-5-4--|
A|------5-2--3-3------5-5----------|----5-5-5--3-3-3--5-5-5--5-3-2--|
E|--3-3----------------------------|----3-3-3-----------------------|
                                        P.M    P.M    P.M    P.M..

Verse (2x) Chorus (2x)

e|------------------------------|------------------------------------------|
B|------------------------------|------------------------------------------|
G|----------------5-5-5--7-7-7--|-------------5-5-5-5-5--7-7-7-7-7--7-5-4--|
D|--5-5-5--2-2-2--5-5-5--7-7-7--|--5-5-5-5-5--5-5-5-5-5--7-7-7-7-7--7-5-4--|
A|--5-5-5--2-2-2--3-3-3--5-5-5--|--5-5-5-5-5--3-3-3-3-3--5-5-5-5-5--5-3-2--|
E|--3-3-3--0-0-0----------------|--3-3-3-3-3-------------------------------|
    P.M    P.M    P.M    P.M                                        P.M..

Verse 2x
Chorus 2x
Verse 2x
Chorus 2x + solo 1
Verse 4x + solo 2

Riff 1

    -------2x------
e|------------------|
B|------------------|
G|-----5--7--7-5-4--|
D|--5--5--7--7-5-4--|
A|--5--3--5--5-3-2--|
E|--3---------------|
             P.M..

Verse 2x
Chorus 2x tanpa solo, 2x + solo 1
Verse 6x
Chorus +solo 1
Riff 1


Solo

Solo 1

       16x 16x
e|-------------|
B|-------------|
G|--12-11--12--|
D|-------------|
A|-------------|
E|-------------|

Solo 2

e|------------------------------------------------------------------------|
B|------------------------------------------------------------------------|
G|--12----12-12--12-14-14b--14-12--12-14-14b-14p12-12p11-11p9-------------|
D|-----12-----------------------------------------------------12p10-10p9--|
A|------------------------------------------------------------------------|
E|------------------------------------------------------------------------|

    -------2x-------                                  -------3x-------  --3x--
e|-------------------------------------------------|----------------------------|
B|-------------------------------------------------|----------------------------|
G|----------------------------------12-11-9--------|----------------------------|
D|--10-10-9-9----9-9--9-9-12-10-10----------12-10--|--10-10-9-9----9-9----------|
A|------------10-----------------------------------|------------10------10-9-7--|
E|-------------------------------------------------|----------------------------|
                                                                        P.M...
    -------2x-------
e|------------------------------------------------------------------------------|
B|------------------------------------------------------------------------------|
G|------------------------------------------14b-14b-14-14-14-14-14-14-14b-rb-\--|
D|--10-10-9-9----9-9--9-9-12-10-10----------------------------------------------|
A|------------10--------------------10-9-9--------------------------------------|
E|------------------------------------------------------------------------------|
                                                    ( sambil bend...)