Make your own free website on Tripod.com

Kamikaze

tabs ni dari KAYRULES....

assalamualaikum...selain cromok, kumpulan metalasia pun aku tabik spring gak tengok diorang punya riff & lead. diorang banyak guna arpegios. aku lemah giler kat natang ni.. tapi aku cuba jer carik.. . dalam kaset, riff2 diorang main berdua (king shah & ritz).. aku tak tau lah mana satu yang aku carik.. mungkin aku dah campur aduk sekali kot.. aku pun baru main gitar 3 tahun jer.. kalau salah tolonglah mail aku. aku harap yang dah terel tu rajin2kanlah buat tab.. kita kongsi sama2..

macam biasa timing korang carik sendiri... oklah..

guide:

     h    = hammer
     p    = pull
     s    = slide
     x    = matikan bunyi pada tali
     \    = slide ke fret 0
    ~~~   = vibrator
    <10>  = harmonic
 <..pm..> = palm muting
    ^full = bend penuh (2 fret)


main riff:
e|-------------------------------------------------|
B|-------------------------------------------------|
G|-------------9-12-10h12s9----9-10-9--------------|
D|--10-9-10-12--------------12--------9-10-12-10---|
A|-------------------------------------------------|
E|-------------------------------------------------|


e|-----------------------------|
B|-----------------------------|
G|-----------------------------|
D|---12---14---9-9-9-10-12-9---|
A|-0----0----0-----------------|
E|-----------------------------|


e|--------------------------------------------|
B|--------------------------------------------|
G|---------9-12-10h12s9----9-10-9------9-10---|
D|-9-10-12--------------12--------9-10--------|
A|--------------------------------------------|
E|--------------------------------------------|


e|----------------16p13-----19p16-16p13---|
B|----10----15\---------15\---------------|
G|-10----10-------------------------------|
D|----------------------------------------|
A|----------------------------------------|
E|----------------------------------------|


e|-------------------------------------------------|
B|-------------------------------------------------|
G|-------------9-12-10h12s9----9-10-9--------------|
D|--10-9-10-12--------------12--------9-10-12-10---|
A|-------------------------------------------------|
E|-------------------------------------------------|


e|-----------------------------|
B|-----------------------------|
G|-----------------------------|
D|---12---14---9-9-9-10-12-9---|
A|-0----0----0-----------------|
E|-----------------------------|


e|--------------------------------------------|
B|--------------------------------------------|
G|---------9-12-10h12s9----9-10-9------9-10---|
D|-9-10-12--------------12--------9-10--------|
A|--------------------------------------------|
E|--------------------------------------------|

                    <..pm...>
e|------------------------------|
B|----10----15\-----------------|
G|-10----10---------------------|
D|------------------------------|
A|---------------3--3-3-3-3-3---|
E|---------------1--1-1-1-1-1---|


e|----------------------------------------------||
B|-8s10-8h10p8-------------8--------------------||
G|-------------10-9-7-9-10------7-9-7-----------||
D|---------------------------10-------6-7-8-9---||
A|----------------------------------------------||
E|----------------------------------------------||


chorus:
e|-----------------------------------|
B|-----------------------------------|
G|---13---10---9---7---9---10--------|
D|-0----0----0---0---0---0----9-10---|
A|-----------------------------------|
E|-----------------------------------|


e|--------------------------------------|
B|--------------------------------------|
G|---14---12---10---9---10---12---------|
D|-0----0----0----0---0----0----10-12---|
A|--------------------------------------|
E|--------------------------------------|

                                     <....pm.....>
e|--------------------------------------------------|
B|--------------------------------------------------|
G|---14---12---10---12---14---12--------------------|
D|-0----0----0----0----0----0-----2--2-2-2-2-2-2-2--|
A|--------------------------------2--2-2-2-2-2-2-2--|
E|--------------------------------0--0-0-0-0-0-0-0--|


   <......pm........>
e|-----------------------------------------------------------||
B|-----------------------------------------------------------||
G|-----------------------------------------------------------||
D|-10-12-8-10-7-8-5-7-...ulang semula main riff -------------||
A|-----------------------sampai balik kat sini, lepas tu-----||
E|-----------------------sambung terus kat main solo..-------||


solo:

    ^full
e|-------------------------------------13------------------------|
B|-------------------------15-18-15-------15---------------------|
G|--<10>----------------14----------14-------14------------------|
D|--<10>-...------12-15-------------------------15-14-15-14-12---|
A|-------------12------------------------------------------------|
E|---------------------------------------------------------------|



e|-------------------------13------------------------|
B|-------------15-18-15-------15---------------------|
G|----------14----------14-------14------------------|
D|----12-15-------------------------15-14-15-14~~~---|
A|-12------------------------------------------------|
E|---------------------------------------------------|



e|--------------17-13-------15-12------------------|
B|-----13-------------15----------13---------------|
G|--------14-------------14----------12------------|
D|--14-------15-------------------------14---------|
A|-----------------------------------------15-10---|
E|-------------------------------------------------|


e|-------------------------13------------------------|
B|----------------------15----15---------------------|
G|-------------------14----------14------------------|
D|-------------12-15----------------15-14-12---------|
A|----------12-------------------------------12------|
E|-10-12-13-------------------------------------13---|


e|--------------17-13-------15-12------------------|
B|-----13-------------15----------13---------------|
G|--------14-------------14----------12------------|
D|--14-------15-------------------------14---------|
A|-----------------------------------------15-10---|
E|-------------------------------------------------|


e|-------------------------13------------------------|
B|----------------------15----15---------------------|
G|-------------------14----------14------------------|
D|-------------12-15----------------15-14-12---------|
A|----------12-------------------------------12------|
E|-10-12-13-------------------------------------13---|



e|----------------------------------------------------|
B|----------------------------------------------------|
G|-----------------------------------------------13---|
D|--------------------------12-14-12----12-14-15------|
A|--11-12-11----11-12-14-15----------15---------------|
E|-----------13---------------------------------------|



e|-16-17----17-16-------16-------------------------------|
B|-------18-------18-17----15h17p15----17-15-------15\---|
G|----------------------------------17-------17-16-------|
D|-------------------------------------------------------|
A|-------------------------------------------------------|
E|-------------------------------------------------------|


e|----------------------------------------------------|
B|----------------------------------------------------|
G|-----------------------------------------------13---|
D|--------------------------12-14-12----12-14-15------|
A|--11-12-11----11-12-14-15----------15---------------|
E|-----------13---------------------------------------|



e|----------------------12-------------20-19~~~\-----------------||
B|-12-13-12----12-13-15----12-13-12------------------------------||
G|----------14----------------------14---------------------------||
D|-----------------------------------------------...habis solo---||
A|---------------------------------------------------------------||
E|---------------------------------------------------------------||


    <.........................pm....................................>
e|--------------------------------------------------------------------|
B|--------------------------------------------------------------------|
G|--------------------------------------------------------------------|
D|--2-2-------2-------2-------2-------2-------2-------2-------2-------|
A|--2-2-------2-------2-------2-------2-------2-------2-------2-------|
E|--0-0-0-0-0-0-0-0-0-0-0-0-0-0-0-0-0-0-0-0-0-0-0-0-0-0-0-0-0-0-0-0-0-|


riff 2:
                     <.pm..>               <.......pm.......>
e|--------------------------------------------------------------|
B|--------------------------------------------------------------|
G|--------------------------------------------------------------|
D|--------9-----12-9---------10-10--10-10------5-----5----------|
A|--7-----7-x-x-10-7-7-7-8-7--8--8---8--8----7-----7--------7---|
E|--5-x-x----------------------------------8-----7-----8-7--5---|


                     <.pm..>               <.......pm.......>
e|--------------------------------------------------------------||
B|--------------------------------------------------------------||
G|--------------------------------------------------------------||
D|--------9-----12-9---------10-10--10-10------5-----5----------||
A|--7-----7-x-x-10-7-7-7-8-7--8--8---8--8----7-----7--------7---||
E|--5-x-x----------------------------------8-----7-----8-7--5---||

  --> ok.. lepas habis riff 2 ni, cepat2 masuk balik kat main riff
      sampai tanda *****. lepas tu sambung terus kat bawah ni..


     <..............pm...................>
    -----------------------------------------||
    -----------------------------------------||
.. -----------------------------------------||
    -----------------------------------------||
    -10-12-8-10-7-8-5-7-10-12-8-10-7-8-5-7---||
    -----------------------------------------||

  --> ngam2 jer lepas habis benda ni korang terus masuk balik kat
      riff 2 dan terus buat ending dengan riff 3.


riff 3: w/outro
e|---------------------------||
B|---------------------------||
G|---------------------------||
D|---------------------------||.. habis
A|-2--7--2--7--2--7--2--7----||
E|-0--5--0--5--0--5--0--5----||


outro:
e|--------------------17-20p17---------------------|
B|-----------------17----------17------------------|
G|--------------17----------------17---------------|  ulang 4 kali
D|-----------19----------------------19------------|  dan habis dengan
A|--------19----------------------------19---------|  vibrator kat fret
E|--17-20----------------------------------20-17---|  17 tali 'E'.



  "ala.. metal lagi?,
   ashik metallll jer.."  --> "pedulik apa aku"

   -kay_rules-