Make your own free website on Tripod.com

Campuran Teknik


1. Tap + Hammer-on + Pull-off


e|-T19-h15p12--T20-h15p12--T22-h15p12--T20-h15p12--T19-h15p12-
B|------------------------------------------------------------
G|------------------------------------------------------------
D|------------------------------------------------------------
A|------------------------------------------------------------
E|------------------------------------------------------------
Bunyi


2. ???


    
   ----------------bahagian i------------------ -baghagian ii-
e|--------------------------11p9-----------12p9----10-10-14p10- 
B|----9-10-9-12p9----9-10-9---------9-10-9------12-------------
G|-11-------------11-------------11----------------------------
D|-------------------------------------------------------------
A|-------------------------------------------------------------
E|-------------------------------------------------------------
!!!Perhatian: pada bahagian i, tekan fret 9 tali 1, 2 & 3. pada bahagian ii tekan fret 10 tali 1 & 2.

Bunyi


3. Simple


e|-0-0-0-0-12--0-0-10--0-0-8--0-0-7--0-0-5--0-0-0-3--0-0-2--0-0-3--0-0-5--0-0-7-
B|------------------------------------------------------------------------------
G|------------------------------------------------------------------------------
D|------------------------------------------------------------------------------
A|------------------------------------------------------------------------------
E|------------------------------------------------------------------------------
Bunyi


4. Jerit


    ---bah. i---  ---bah. ii---
     *  *  *  *    *  *  *  * 
e|--12-12-12-12b--12-12-12-12~----------
B|--------------------------------------
G|--------------------------------------
D|--------------------------------------
A|--------------------------------------
E|--------------------------------------
Cara main:
a. Pegang pick dengan meninggalkan sedikit sahaja ruang untuk memetik
b. Semasa memetik, kenakan sedikit ibu jari anda kepada tali gitar
(pada bahagian i, buat cara a di atas middle pick-up & pada bahagian ii buat cara b di atas bahagian neck pick-up)

Bunyi


5. Biola


e|--------------------------------------
B|--12~--14~--10~--9~-------------------
G|--------------------------------------
D|--------------------------------------
A|--------------------------------------
E|--------------------------------------
Cara main: a. Tutup volume pada gitar b. Petik not dan lakukan vibrato c. Kuatkan volume perlahan-lahan

Bunyi


6. Double


e|--------------------------15-12-12-17-12--------
B|-----12-12-12-13-12-12-12-15-12-12-17-12-15-15--
G|--12-12-12-12-14-12-12-12----------------14-14b-
D|--14--------------------------------------------
A|------------------------------------------------
E|------------------------------------------------
!!!Perhatian: tekan fret 12 tali 1, 2 & 3 sepanjang bermain.

Bunyi