Make your own free website on Tripod.com

Finger Practice

 Finger practice adalah penting untuk memperbaiki mutu permainan. Ia mesti dilakukan setiap kali sebelum memulakan permainan gitar anda. Selepas finger practice dilakukan, anda akan berasa lebih mudah untuk bermain. **Finger practice mesti dimulakan dengan perlahan kemudian tambahkan kelajuan sedikit demi sedikit **. Buat sehingga petikan dan jari anda memegang chord tepat.

Satu

        
e|--{-12--10--9-}--{-10--9--7-}--{-9--7--5-}-{-5--7--9-}-{-7--9--10-}-{-9--10--12-}-|
B|--{-----------}--{----------}--{---------}-{---------}-{----------}-{-----------}-|
G|--{-----------}--{----------}--{---------}-{---------}-{----------}-{-----------}-|
D|--{-----------}--{----------}--{---------}-{---------}-{----------}-{-----------}-|
A|--{-----------}--{----------}--{---------}-{---------}-{----------}-{-----------}-|
E|--{-----------}--{----------}--{---------}-{---------}-{----------}-{-----------}-|
    { d   b   a }  {  d  c  a }  { d  b  a } { a  b  d } { a  c   d } { a  b   d  }
    {    3x     }  {    3x    }  {    3x   } {   3X    } {    3X    } {     3x    }

Dua

e|---12--10--9---------------------------------------9--10--12---------|
B|--------------12--10--9-----------------9--10--12--------------------|
G|-------------------------11--9---9--11-------------------------------|
D|---------------------------------------------------------------------|
A|---------------------------------------------------------------------|
E|---------------------------------------------------------------------|
     d   b   a   d   b  a   c  a   a   c  a  b   d   a  b   d  

Tiga

        
e|---12--11--9---------------------------------------9--11--12---------|
B|--------------12--10--9-----------------9--10--12--------------------|
G|-------------------------11--9---9--11-------------------------------|
D|---------------------------------------------------------------------|
A|---------------------------------------------------------------------|
E|---------------------------------------------------------------------|
     d   c   a   d   b  a   c  a   a   c  a  b   d   a  c   d  

Empat

e|-12-10-9--------------------------------------------9-10-12-------|
B|---------12-10-9----------------------------9-10-12---------------|
G|-----------------11-9-7-9-7-6--6-7-9-7-9-11-----------------------|
D|------------------------------------------------------------------|
A|------------------------------------------------------------------|
E|------------------------------------------------------------------|
    d  b a  d  b a  d b a d b a  a b d a b d  a  b  d a  b  d

Lima

e|-12-11-9--------------------------------------------9-11-12-------|
B|---------12-10-9----------------------------9-10-12---------------|
G|-----------------11-9-8-9-8-6--6-8-9-8-9-11-----------------------|
D|------------------------------------------------------------------|
A|------------------------------------------------------------------|
E|------------------------------------------------------------------|
    d  c a  d  b a  d b a d c a  a c d a b  d a  b  d a  c  d

Enam

 
e|--9--12--10--9------10--9----------9-----------------------------------|
B|----------------12---------12--10-----12--10--9--12--10--9------10--9--|
G|------------------------------------------------------------11---------|
D|-----------------------------------------------------------------------|
A|-----------------------------------------------------------------------|
E|-----------------------------------------------------------------------|
    a  d   b   a  d   b   a  d   b   a  d   b   a  d   b   a  c   b   a
       
e|-----------------------------------------------------------------------|
B|---------9-------------------------------------------------------------|
G|--11--9-----11--9--7--11--9--7--6--9--7--6-----7--6--------6-----------|
D|--------------------------------------------9--------9--7-----9--7--6--|
A|-----------------------------------------------------------------------|
E|-----------------------------------------------------------------------|
    c   \ a /  d   b  a  d   b  a  a  d  b  a  d  b  a  d  b  a  d  b  a
        
e|----------------------------------------------------------------------|
B|----------------------------------------------------------------------|
G|----------------------------------------------------------------------|
D|--9--7--6-----7--6--------6-------------------------------------------|
A|-----------9--------9--7-----9--7--5--9--7--5--4--7--5--4-----5--4----|
E|-----------------------------------------------------------7--------7-|
    d  b  a  d  b  a  d  b  a  d  b  a  d  b  a  a  d  b  a  d  b  a  d
       
e|----------------------------------------------------------------------|
B|----------------------------------------------------------------------|
G|----------------------------------------------------------------------|
D|----------------------------------------------------------------------|
A|-----4----------------------------------------------------------------|
E|--5-----7--5--4--7--5--4--2-------------------------------------------|
    b  a  d  b  a  d  b  a  a
        
e|----------------------------------------------------------------------|
B|----------------------------------------------------------------------|
G|----------------------------------------------------------------------|
D|-----------------------------------------------------------6-----6--7-|
A|-----------------------4-----4--5--7--4--5--7--9--5--7--9-----9-------|
E|--2--4--5--7--4--5--7-----7-------------------------------------------|
    a  b  c  c  a  b  d  a  d  a  b  d  a  b  d  d  a  b  d  a  d  a  b
        
e|----------------------------------------------------------------------|
B|----------------------------------------------------9------9--10--12--|
G|--------------6-----6--7--9--6--7--9--11--7--9--11-----11-------------|
D|--9--6--7--9-----9----------------------------------------------------|
A|----------------------------------------------------------------------|
E|----------------------------------------------------------------------|
    d  a  b  d  a  d  a  b  d  a  b  d  d   a  b  d   a  c   a  b   d
        
e|-------------9------9--10--12-----------------------------------------|
B|--9--10--12-----12----------------------------------------------------|
G|----------------------------------------------------------------------|
D|----------------------------------------------------------------------|
A|----------------------------------------------------------------------|
E|----------------------------------------------------------------------|
    a  b   d   a  d   a  b   d

petunjuk:
a jari telunjuk
b jari hantu
c jari manis
d jari kelengking
\ a / pegang kedua-dua tali itu serentak dengan jari a.

Yeah.... mungkin anda boleh membuat finger practice anda sendiri atau mengikut finger practice gitaris kegemaran anda.