Make your own free website on Tripod.com

Final Ticking-Cromok (bass tab)


Tajuk   : Final Ticking
Artis   : Cromok
Album   : Yours Truly
Bassist : Shamsudin Ali (Sam Cromok) - finggering

intro : bunyi jam dulu

G-------------------------------------------|
D-------------------------------------------|
A---------------------------------------2---|
E-0-2-3-------------------------------0---3-|

G-----------------------------|
D-----------------------------| ulang
A---2-----2h3-2h3---2---------|  4 X
E-0---3-2---------0---3-0-2-3-|

G---------------------------------------
D---------------------------------------
A---------------------------------------
E-0-0-0-0-0-3-0-0-0-0-2-0-0-0-0-3-2-5-3-

G---------------------------------------|
D---------------------------------------| ulang
A---------------------------------------|  3 X
E-0-0-0-0-0-3-0-0-0-0-2-0-0-0-0-3-2-5-5-|

G---------------------------------------------|
D---------------------------------------------| ulang
A-7-5-3-2-------------------------------------|  3 X
E---------2-3-0-0-0-0-0-0-0-0-0-0-0-0-0-0-0-0-|

G---------------|
D---------------|
A-7-5-3-2-------|
E---------2-3-0-|

G---------------------------------------
D---------------------------------------
A---------------------------------------
E-0-0-0-0-0-3-0-0-0-0-2-0-0-0-0-3-2-5-3-

G---------------------------------------|
D---------------------------------------| ulang
A---------------------------------------|  2 X
E-0-0-0-0-0-3-0-0-0-0-2-0-0-0-0-3-2-5-5-|

G---------------------------------------------|
D---------------------------------------------| ulang
A-7-5-3-2-------------------------------------|  3 X
E---------2-3-0-0-0-0-0-0-0-0-0-0-0-0-0-0-0-0-|

G-------------|
D-------------|
A-7-5-3-2-----|
E---------2-3-|

G-----------------------------------------------------|
D-----------------------------------------------------|
A-2-2-2-2-3-------------3---------2-3---5-3-2---------|
E-----------5-5-5-5-5-3---5-5-5-5-----3-------3-1-1-3-|

G---------------------------------------------------|
D---------------------------------------------------| ulang
A-----------2-----------3-----------5-----------2-3-|  3 X
E-0-0-0-0-0---0-0-0-0-0---0-0-0-0-0---0-0-0-0-0-----|

G-------------------------------------------------------|
D-------------------------------------------------------|
A-----------2-----------3-----------5-----------2-3-----|
E-0-0-0-0-0---0-0-0-0-0---0-0-0-0-0---0-0-0-0-0-----3-0-|


G---------------------------------------|
D---------------------------------------| ulang
A---------------------------------------|  3 X
E-0-0-0-0-0-3-0-0-0-0-2-0-0-0-0-3-2-5-5-|

G---------------------------------------------|
D---------------------------------------------| ulang
A-7-5-3-2-------------------------------------|  3 X
E---------2-3-0-0-0-0-0-0-0-0-0-0-0-0-0-0-0-0-|

G---------------|
D---------------|
A-7-5-3-2-------|
E---------2-3-0-|

G-----------------------------------------------------
D-----------------------------------------------------
A-----------------------------------------------------
E-0-0-0-0-0-0-0-0-0-0-0-3-3-0-0-0-0-0-0-0-0-0-0-0-5-3-

G---------------------------------------------------------|
D---------------------------------------------------------| ulang
A---------------------------------------------------------|  6 X
E-0-0-0-0-0-0-0-0-0-0-0-3-3-0-0-0-0-0-0-0-0-0-0-0-5-3-2-3-|

G---------------------------------------------|
D---------------------------------------------| ulang
A-7-5-3-2-------------------------------------|  3 X
E---------2-3-0-0-0-0-0-0-0-0-0-0-0-0-0-0-0-0-|

G-------------|
D-------------|
A-7-5-3-2-----|
E---------2-3-|

G---------------------------------------------------|
D---------------------------------------------------| ulang
A-----------2-----------3-----------5-----------2-3-|  3 X
E-0-0-0-0-0---0-0-0-0-0---0-0-0-0-0---0-0-0-0-0-----|

G-------------------------------------------------------|
D-------------------------------------------------------|
A-----------2-----------3-----------5-----------2-3-----|
E-0-0-0-0-0---0-0-0-0-0---0-0-0-0-0---0-0-0-0-0-----3-0-|

bunyi jam lagi

G---------------------------------------
D---------------------------------------
A---------------------------------------
E-0-0-0-0-0-3-0-0-0-0-2-0-0-0-0-3-2-5-3-

G---------------------------------------|
D---------------------------------------|
A---------------------------------------|
E-0-0-0-0-0-3-0-0-0-0-2-0-0-0-0-3-2-5-5-|

sedawa

*tamat

* thanx to kay_rules, bapak, manan, ted,
  dan semua budak-budak metal scc utm
* kalau nak tab gitar lead dan rythm cromok korang taip je
  kay_rules kat 'find' mana-mana...

amin_ns@hotmail.com