Make your own free website on Tripod.com

Faculty of minds (solo) - butterfingers

Petunjuk:
h hammer
p pull
/ slide kepada not tinggi
\ slide kepada not rendah

e|----------------------------------------------|
B|--7--7-7-7h9-9-7h9p7---7----------------------|
G|---------------------9---6--6-7-7/9--7-9-7-6--|
D|----------------------------------------------|
A|----------------------------------------------|
E|----------------------------------------------|

harmony part (gitar 1 & 2 dimain serentak):
1st guitar
e|----------------------------------------------|
B|--7-7-/9-9-9-/10-10-/12-12-\10-10-------------|
G|----------------------------------------------|
D|----------------------------------------------|
A|----------------------------------------------|
E|----------------------------------------------|

2nd guitar
e|----------------------------------------------|
B|----------------------------------------------|
G|--6-6-/4-4-4-/6-6--7-7-6----------------------|
D|----------------------------------------------|
A|----------------------------------------------|
E|----------------------------------------------|
note: pada tanda seperti /9 atau \10, tak perlu petik 
tapi hanya slide dari not yg sebelumnya