Make your own free website on Tripod.com

Dooms Day Out-butterfingers

petunjuk: / slide
b bend
rb release bend
h hammer on
p pull off

>A5 G5 A5 C5 G5 ---->for intro and verse
>A5 C5 G5 ----->for chorus
>A5 G5 ---->bridge
>dan 2nd bridgenya aku kurang pasti betul ke idak:
A5 G5 C5 F5

chords by kamira

ini solonya:

|--------------------------------------------------------------------|
|--------------------------------------------------------------------|
|--------------------------------------------------------------------|
|--------------------------------------------------------------------|
|-4-4-4-4-4-4/6---4-4-4-4-4-4/6---4-4-4-4-4-4/6-6/8--6-8-6-8-6-8-6---|
|---------------8--------------8-----------------------------------8-|

|---------------------------------------------------------------------|
|---------------------------------------------------------------------|
|-----------------------------------------6-8b------------------------|
|---------6---8b-rb-p6--------6-8-6-8b--8------6-6h896----------------|
|-----6-8---8----------8--6-8--------------------------6h8p6--8-6-8-6-|
|-8-9-----------------------------------------------------------------|

|-8-------8-------8-----8------------9-8-6-8--6h8p6---6------------|
|---6-6-6---6-6-6---6-6---6-6-6-6-6-----------------9---9-6----6---|
|------------------------------------------------------------8---8-|
|------------------------------------------------------------------|
|------------------------------------------------------------------|
|------------------------------------------------------------------|

|--------------------------------|
|--------------------------------|
|-6-5-6/8-5-6--------------------|
|-------------8b-----------------|
|--------------------------------|
|--------------------------------|