Make your own free website on Tripod.com

Castaway-Cromok (bass tab)


Tajuk   : Castaway
Artis   : Cromok
Album   : Yours Truly
Bassist : Shamsudin Ali (Sam Cromok) - finggering

G------------------------------------------------------------------------
D------------------------------------------------------------------------
A------------------------------------------------------------------------
E-12s0-0-0-0-0-0-0-0-0-0-0-0-0-0-0-0-0-0-0-0-0-0-0-0-0-0-0-0-0-0-0-0-0-0-

G-----------------------------------------------------------------|
D-----------------------------------------------------------------|
A-----------------------------------------------------------------|
E-0-0-0-0-0-0-0-0-0-0-0-0-0-0-0-0-0-0-0-0-0-0-0-0-0-0-0-0-0-0-0-0-|


G-------------------------------------------------------------|
D-------------------------------------------------------------|
A-2-2-2-2---------5-5-5-5-2-2-2-2-3-3-3-3---------------------|
E---------3-3-3-3-------------------------5-5-5-5-2-2-2-2-3-2-|


G-----------------------------------------------------|
D-----------------------------------------------------|
A-2-2-2-2---------5-5-5-5-2-2-2-2-3-3-3-3-------------|
E---------3-3-3-3-------------------------5-5-5-5-5-3-|


G-------------------------|
D-------------------------| ulang
A---------------2-2h3-2---|  3 X
E-0-0-0-0-0-0-3---------3-|


G-------------------------|
D-------------------------|
A---------------2-2h3-2---|
E-0-0-0-0-0-0-3---------1-|


G-----------------------------------------------------------------
D-----------------------------------------------------------------
A---------------2-2h3-2-----------------2-2h3-2-------------3-3-3-
E-0-0-0-0-0-0-3---------3-0-0-0-0-0-0-3---------3-5-5-5-5-5-------


G-------------------------|
D-------------------------| ulang
A---------------2-2h3-2---|  2 X
E-0-0-0-0-0-0-3---------3-|

G---------------------------------------------------------------
D---------------------------------------------------------------
A-7-7-7-7-7-7-7-8-5-5-5-5-5-5-5-8-7-7-7-7-7-7-7-8-5-5-5-5-5-5-5-
E---------------------------------------------------------------


G-------------------------------------|
D-------------------------------------|
A-2-3-3-3-3-3-3-3---------------------|
E-----------------5-3-3-3-3-1-1-1-1-5-|

G-----------------------------------------------------------------
D-----------------------------------------------------------------
A---------------2-2h3-2-----------------2-2h3-2-------------3-3-3-
E-0-0-0-0-0-0-3---------3-0-0-0-0-0-0-3---------3-5-5-5-5-5-------


G-------------------------|
D-------------------------| ulang
A---------------2-2h3-2---|  2 X
E-0-0-0-0-0-0-3---------3-|

G---------------------------------------------------------------
D---------------------------------------------------------------
A-7-7-7-7-7-7-7-8-5-5-5-5-5-5-5-8-7-7-7-7-7-7-7-8-5-5-5-5-5-5-5-
E---------------------------------------------------------------


G-------------------------------------|
D-------------------------------------|
A-2-3-3-3-3-3-3-3---------------------|
E-----------------5-3-3-3-3-1-1-1-1-5-|

G-------------------------------------------------------------
D-------------------------------------------------------------
A---------------2-2h3-2-----------------2-2h3-2---2---3-2-----
E-0-0-0-0-0-0-3---------3-0-0-0-0-0-0-3---------3---3-----3-1-

G------------------------------------------|
D------------------------------------------|
A---2---3-2-------2---3-2------2---3-2-----|
E-3---3-----3-1-3---3-----3-1-3--3-----3-1-|

G-------------------------|
D-------------------------| ulang
A---------------2-2h3-2---|  4 X
E-0-0-0-0-0-0-3---------3-|


G-------------------------------------------------------------|
D-------------------------------------------------------------|
A-2-2-2-2---------5-5-5-5-2-2-2-2-3-3-3-3---------------------|
E---------3-3-3-3-------------------------5-5-5-5-2-2-2-2-3-2-|


G-----------------------------------------------------|
D-----------------------------------------------------|
A-2-2-2-2---------5-5-5-5-2-2-2-2-3-3-3-3-------------|
E---------3-3-3-3-------------------------5-5-5-5-5-3-|


G-------------------------------------|
D-------------------------------------|
A-2-3-3-3-3-3-3-3---------------------|
E-----------------5-3-3-3-3-1-1-1-1-5-|

G-------------------------|
D-------------------------| ulang
A---------------2-2h3-2---|  4 X
E-0-0-0-0-0-0-3---------3-|


G-------------------------------------------------------------|
D-------------------------------------------------------------|
A-2-2-2-2---------5-5-5-5-2-2-2-2-3-3-3-3---------------------|
E---------3-3-3-3-------------------------5-5-5-5-2-2-2-2-3-2-|


G-----------------------------------------------------|
D-----------------------------------------------------|
A-2-2-2-2---------5-5-5-5-2-2-2-2-3-3-3-3-------------|
E---------3-3-3-3-------------------------5-5-5-5-5-3-|

G-------------------------|
D-------------------------| ulang
A---------------2-2h3-2---|  4 X
E-0-0-0-0-0-0-3---------3-|


G-------------------------------------------------------------|
D-------------------------------------------------------------|
A-2-2-2-2---------5-5-5-5-2-2-2-2-3-3-3-3---------------------|
E---------3-3-3-3-------------------------5-5-5-5-2-2-2-2-3-2-|


G-----------------------------------------------------|
D-----------------------------------------------------|
A-2-2-2-2---------5-5-5-5-2-2-2-2-3-3-3-3-------------|
E---------3-3-3-3-------------------------5-5-5-5-5-3-|

G---------------------------------------------------------------
D---------------------------------------------------------------
A-7-7-7-7-7-7-7-8-5-5-5-5-5-5-5-8-7-7-7-7-7-7-7-8-5-5-5-5-5-5-5-
E---------------------------------------------------------------


G-------------------------------------|
D-------------------------------------|
A-2-3-3-3-3-3-3-3---------------------|
E-----------------5-3-3-3-3-1-1-1-1-5-|

G---------------------------------------------------------------
D---------------------------------------------------------------
A-7-7-7-7-7-7-7-8-5-5-5-5-5-5-5-8-7-7-7-7-7-7-7-8-5-5-5-5-5-5-5-
E---------------------------------------------------------------


G-------------------------------------|
D-------------------------------------|
A-2-3-3-3-3-3-3-3---------------------|
E-----------------5-3-3-3-3-1-1-1-1-5-|

G---------------|
D---------------| ulang
A---2---3-2-----|  7 X
E-3---3-----3-1-|


G-------------|
D-------------|
A---2---3-----|
E-3---3---3-1-|

G-------------------------|
D-------------------------| ulang
A---------------2-2h3-2---|  4 X
E-0-0-0-0-0-0-3---------3-|

G-------------------|
D-------------------|
A-------------------|
E-0-0-1-1-3-3-1-1-0-|

* tamat - sorry susunan berterabur sikit.

* thanx to kay_rules, bapak, manan, ted,
  dan semua budak-budak metal scc utm
* kalau nak tab gitar lead dan rythm cromok korang taip je
  kay_rules kat 'find' mana-mana...

amin_ns@hotmail.com