Make your own free website on Tripod.com

I Don't Belong Here

Intro (sebenarnya guna ogan tapi sempoi jugak kalau guna bass)

   -------------ulang sepanjang intro--------------
   ------2x-------
e|--------------------------------------------------|
B|--------------------------------------------------|
G|--------------------------------------------------|
D|---------2-0---0--------------------0-----------0-|
A|-0-0-2-0-----3------------3-2-0-2-----3-2-0-2-3---|
E|------------------1-1-3-1---------3---------------|
Riff 1
      --8x-  --4x-  --4x-  --2x-  --2x-  --4x-    --4x-  --4x-
e|------------------------|---------------------|--------------|
B|------------------------|---------------------|--------------|
G|-----------7-7-7--------|-7-7-7---------------|--------------|
D|-5--7-7-7--7-7-7--7-7-7-|-7-7-7--5-5-5--7-7-7-|-3-3-3--2-2-2-|
A|-5--7-7-7--5-5-5--7-7-7-|-5-5-5--5-5-5--7-7-7-|-3-3-3--2-2-2-|
E|-3--5-5-5---------5-5-5-|--------3-3-3--5-5-5-|-1-1-1--0-0-0-|
        P.M    P.M    P.M     P.M    P.M    P.M     P.M    P.M

   --8x-  --4x-  --4x-  --2x-  --2x-  --4x-    --2x-  --2x-  --4x-
e|---------------------|---------------------|---------------------|
B|---------------------|---------------------|---------------------|
G|--------7-7-7--------|-7-7-7---------------|---------------------|
D|-7-7-7--7-7-7--7-7-7-|-7-7-7--5-5-5--7-7-7-|-3-3-3--2-2-2--5-5-5-|
A|-7-7-7--5-5-5--7-7-7-|-5-5-5--5-5-5--7-7-7-|-3-3-3--2-2-2--5-5-5-|
E|-5-5-5---------5-5-5-|--------3-3-3--5-5-5-|-1-1-1--0-0-0--3-3-3-|
     P.M    P.M    P.M     P.M    P.M    P.M     P.M    P.M    P.M
Riff 2
   --4x-  --2x-                --4x-  --4x-
e|------------------------------------------|
B|------------------------------------------|
G|-8-8-8---------7-7-7--9-9-9---------------|
D|-6-6-6--7-7-7--7-7-7--9-9-9--6-6-6--7-7-7-|
A|-6-6-6--7-7-7--5-5-5--7-7-7--6-6-6--7-7-7-|
E|--------5-5-5----------------4-4-4--5-5-5-|
     P.M    P.M    P.M    P.M    P.M    P.M
Riff 3
   --2x-  --2x-  --2x-  --2x-  --4x-  --4x-   --2x-  --2x-  --2x-  --2x-  --4x-  
e|------------------------------------------|-----------------------------------|
B|------------------------------------------|-----------------------------------|
G|-7-7-7---------5-5-5---------7-7-7--------|-7-7-7---------5-5-5---------7-7-7-|
D|-7-7-7--5-5-5--5-5-5--3-3-3--7-7-7--2-2-2-|-7-7-7--5-5-5--5-5-5--3-3-3--7-7-7-|
A|-5-5-5--5-5-5--3-3-3--3-3-3--5-5-5--2-2-2-|-5-5-5--5-5-5--3-3-3--3-3-3--5-5-5-|
E|--------3-3-3---------1-1-1---------0-0-0-|--------3-3-3---------1-1-1--------|
   P.M    P.M    P.M    P.M    P.M    P.M      P.M    P.M     P.M    P.M    P.M   

   --2x-  ---2x---  --2x-  --4x-  ---2x---  --2x-  --4x-
e|-------------------------------------------------------|
B|-------------------------------------------------------|
G|-9-9-9--10-10-10--7-7-7--9-9-9--10-10-10--7-7-7--9-9-9-|
D|-9-9-9--10-10-10--7-7-7--9-9-9--10-10-10--7-7-7--9-9-9-|
A|-7-7-7--8--8--8---5-5-5--7-7-7---8--8--8--5-5-5--7-7-7-|
E|-------------------------------------------------------|
   P.M    P.M..     P.M    P.M     P.M..     P.M    P.M
Riff 4(4x)
   --4x-  --4x-  --4x-  --4x-  --4x-  --4x-  --4x-  --4x-  
e|--------------------------------------------------------|
B|--------------------------------------------------------|
G|--------7-7-7-----------------------7-7-7--8-8-8--------|
D|-7-7-7--7-7-7--5-5-5--7-7-7--3-3-3--7-7-7--8-8-8--2-2-2-|
A|-7-7-7--5-5-5--5-5-5--7-7-7--3-3-3--5-5-5--6-6-6--2-2-2-|
E|-5-5-5---------3-3-3--5-5-5--1-1-1----------------0-0-0-|
Riff 4
   --2x-  --2x-  --2x-  --2x-  --2x-  --2x-  --4x-   --2x-  --2x-  --2x-  --2x-  --4x-  
e|-------------------------------------------------|-----------------------------------|
B|-------------------------------------------------|-----------------------------------|
G|-7-7-7---------5-5-5---------7-7-7--8-8-8--------|-7-7-7---------5-5-5---------7-7-7-|
D|-7-7-7--5-5-5--5-5-5--3-3-3--7-7-7--8-8-8--2-2-2-|-7-7-7--5-5-5--5-5-5--3-3-3--7-7-7-|
A|-5-5-5--5-5-5--3-3-3--3-3-3--5-5-5--6-6-6--2-2-2-|-5-5-5--5-5-5--3-3-3--3-3-3--5-5-5-|
E|--------3-3-3---------1-1-1----------------0-0-0-|--------3-3-3---------1-1-1--------|
   P.M    P.M    P.M    P.M    P.M    P.M      P.M    P.M     P.M    P.M    P.M    P.M
Riff 5
                 --6x-  --4x-  --4x-   --2x-  --2x-  --4x-    --4x-  --4x-
e|-----------------------------------|---------------------|--------------|
B|-----------------------------------|---------------------|--------------|
G|----------------------7-7-7--------|-7-7-7---------------|--------------|
D|-7-7-7-7--7-7--7-7-7--7-7-7--7-7-7-|-7-7-7--5-5-5--7-7-7-|-3-3-3--2-2-2-|
A|-7-7-7-7--7-7--7-7-7--5-5-5--7-7-7-|-5-5-5--5-5-5--7-7-7-|-3-3-3--2-2-2-|
E|-5-5-5-5--5-5--5-5-5---------5-5-5-|--------3-3-3--5-5-5-|-1-1-1--0-0-0-|
   P.M..    P.M    P.M    P.M    P.M     P.M    P.M    P.M     P.M    P.M

   --8x-  --4x-  --4x-  --2x-  --2x-  --4x-    --2x-  --2x-
e|---------------------|---------------------|--------------|
B|---------------------|---------------------|--------------|
G|--------7-7-7--------|-7-7-7---------------|--------------|
D|-7-7-7--7-7-7--7-7-7-|-7-7-7--5-5-5--7-7-7-|-3-3-3--2-2-2-|
A|-7-7-7--5-5-5--7-7-7-|-5-5-5--5-5-5--7-7-7-|-3-3-3--2-2-2-|
E|-5-5-5---------5-5-5-|--------3-3-3--5-5-5-|-1-1-1--0-0-0-|
     P.M    P.M    P.M     P.M    P.M    P.M     P.M    P.M
Outro
   -----6x----
e|------------------|
B|------------------|
G|------------------|
D|-7--7---3--3--\-7-|
A|-7--7---3--3--\-7-|
E|-5--5---1--1--\-5-|
   P.M    P.M