Make your own free website on Tripod.com

Alasan-Amuk

Intro (sebenarnya guna ogan tapi sempoi jugak kalau guna bass)

   -------------ulang sepanjang intro--------------
   ------2x-------
e|--------------------------------------------------|
B|--------------------------------------------------|
G|--------------------------------------------------|
D|---------2-0---0--------------------0-----------0-|
A|-0-0-2-0-----3------------3-2-0-2-----3-2-0-2-3---|
E|------------------1-1-3-1---------3---------------|
Riff 1
      --8x-  --4x-  --4x-  --2x-  --2x-  --4x-    --4x-  --4x-
e|------------------------|---------------------|--------------|
B|------------------------|---------------------|--------------|
G|-----------7-7-7--------|-7-7-7---------------|--------------|
D|-5--7-7-7--7-7-7--7-7-7-|-7-7-7--5-5-5--7-7-7-|-3-3-3--2-2-2-|
A|-5--7-7-7--5-5-5--7-7-7-|-5-5-5--5-5-5--7-7-7-|-3-3-3--2-2-2-|
E|-3--5-5-5---------5-5-5-|--------3-3-3--5-5-5-|-1-1-1--0-0-0-|
        P.M    P.M    P.M     P.M    P.M    P.M     P.M    P.M

   --8x-  --4x-  --4x-  --2x-  --2x-  --4x-    --2x-  --2x-  --4x-
e|---------------------|---------------------|---------------------|
B|---------------------|---------------------|---------------------|
G|--------7-7-7--------|-7-7-7---------------|---------------------|
D|-7-7-7--7-7-7--7-7-7-|-7-7-7--5-5-5--7-7-7-|-3-3-3--2-2-2--5-5-5-|
A|-7-7-7--5-5-5--7-7-7-|-5-5-5--5-5-5--7-7-7-|-3-3-3--2-2-2--5-5-5-|
E|-5-5-5---------5-5-5-|--------3-3-3--5-5-5-|-1-1-1--0-0-0--3-3-3-|
     P.M    P.M    P.M     P.M    P.M    P.M     P.M    P.M    P.M
Riff 2
   --4x-  --2x-                --4x-  --4x-
e|------------------------------------------|
B|------------------------------------------|
G|-8-8-8---------7-7-7--9-9-9---------------|
D|-6-6-6--7-7-7--7-7-7--9-9-9--6-6-6--7-7-7-|
A|-6-6-6--7-7-7--5-5-5--7-7-7--6-6-6--7-7-7-|
E|--------5-5-5----------------4-4-4--5-5-5-|
     P.M    P.M    P.M    P.M    P.M    P.M
Riff 3
   --2x-  --2x-  --2x-  --2x-  --4x-  --4x-   --2x-  --2x-  --2x-  --2x-  --4x-  
e|------------------------------------------|-----------------------------------|
B|------------------------------------------|-----------------------------------|
G|-7-7-7---------5-5-5---------7-7-7--------|-7-7-7---------5-5-5---------7-7-7-|
D|-7-7-7--5-5-5--5-5-5--3-3-3--7-7-7--2-2-2-|-7-7-7--5-5-5--5-5-5--3-3-3--7-7-7-|
A|-5-5-5--5-5-5--3-3-3--3-3-3--5-5-5--2-2-2-|-5-5-5--5-5-5--3-3-3--3-3-3--5-5-5-|
E|--------3-3-3---------1-1-1---------0-0-0-|--------3-3-3---------1-1-1--------|
   P.M    P.M    P.M    P.M    P.M    P.M      P.M    P.M     P.M    P.M    P.M   

   --2x-  ---2x---  --2x-  --4x-  ---2x---  --2x-  --4x-
e|-------------------------------------------------------|
B|-------------------------------------------------------|
G|-9-9-9--10-10-10--7-7-7--9-9-9--10-10-10--7-7-7--9-9-9-|
D|-9-9-9--10-10-10--7-7-7--9-9-9--10-10-10--7-7-7--9-9-9-|
A|-7-7-7--8--8--8---5-5-5--7-7-7---8--8--8--5-5-5--7-7-7-|
E|-------------------------------------------------------|
   P.M    P.M..     P.M    P.M     P.M..     P.M    P.M
Riff 4(4x)
   --4x-  --4x-  --4x-  --4x-  --4x-  --4x-  --4x-  --4x-  
e|--------------------------------------------------------|
B|--------------------------------------------------------|
G|--------7-7-7-----------------------7-7-7--8-8-8--------|
D|-7-7-7--7-7-7--5-5-5--7-7-7--3-3-3--7-7-7--8-8-8--2-2-2-|
A|-7-7-7--5-5-5--5-5-5--7-7-7--3-3-3--5-5-5--6-6-6--2-2-2-|
E|-5-5-5---------3-3-3--5-5-5--1-1-1----------------0-0-0-|
Riff 4
   --2x-  --2x-  --2x-  --2x-  --2x-  --2x-  --4x-   --2x-  --2x-  --2x-  --2x-  --4x-  
e|-------------------------------------------------|-----------------------------------|
B|-------------------------------------------------|-----------------------------------|
G|-7-7-7---------5-5-5---------7-7-7--8-8-8--------|-7-7-7---------5-5-5---------7-7-7-|
D|-7-7-7--5-5-5--5-5-5--3-3-3--7-7-7--8-8-8--2-2-2-|-7-7-7--5-5-5--5-5-5--3-3-3--7-7-7-|
A|-5-5-5--5-5-5--3-3-3--3-3-3--5-5-5--6-6-6--2-2-2-|-5-5-5--5-5-5--3-3-3--3-3-3--5-5-5-|
E|--------3-3-3---------1-1-1----------------0-0-0-|--------3-3-3---------1-1-1--------|
   P.M    P.M    P.M    P.M    P.M    P.M      P.M    P.M     P.M    P.M    P.M    P.M
Riff 5
                 --6x-  --4x-  --4x-   --2x-  --2x-  --4x-    --4x-  --4x-
e|-----------------------------------|---------------------|--------------|
B|-----------------------------------|---------------------|--------------|
G|----------------------7-7-7--------|-7-7-7---------------|--------------|
D|-7-7-7-7--7-7--7-7-7--7-7-7--7-7-7-|-7-7-7--5-5-5--7-7-7-|-3-3-3--2-2-2-|
A|-7-7-7-7--7-7--7-7-7--5-5-5--7-7-7-|-5-5-5--5-5-5--7-7-7-|-3-3-3--2-2-2-|
E|-5-5-5-5--5-5--5-5-5---------5-5-5-|--------3-3-3--5-5-5-|-1-1-1--0-0-0-|
   P.M..    P.M    P.M    P.M    P.M     P.M    P.M    P.M     P.M    P.M

   --8x-  --4x-  --4x-  --2x-  --2x-  --4x-    --2x-  --2x-
e|---------------------|---------------------|--------------|
B|---------------------|---------------------|--------------|
G|--------7-7-7--------|-7-7-7---------------|--------------|
D|-7-7-7--7-7-7--7-7-7-|-7-7-7--5-5-5--7-7-7-|-3-3-3--2-2-2-|
A|-7-7-7--5-5-5--7-7-7-|-5-5-5--5-5-5--7-7-7-|-3-3-3--2-2-2-|
E|-5-5-5---------5-5-5-|--------3-3-3--5-5-5-|-1-1-1--0-0-0-|
     P.M    P.M    P.M     P.M    P.M    P.M     P.M    P.M
Outro
   -----6x----
e|------------------|
B|------------------|
G|------------------|
D|-7--7---3--3--\-7-|
A|-7--7---3--3--\-7-|
E|-5--5---1--1--\-5-|
   P.M    P.M

Solo 1

e|------------------------------------10----12--15-----------------------------------------------|
B|----10--8-8-10--8-8-12--8-8-13--8-8----13--------15-------------10----10-12/13--12-12-10-12-13-|
G|--------------------------------------------------------------------12-------------------------|
D|-7----------------------------------------------------------10-12------------------------------|
A|-----------------------------------------------------10/12-------------------------------------|
E|-----------------------------------------------------------------------------------------------|
          P.M     P.M     P.M     P.M        

e|-12--------------------------------------------------------------------------------------------|
B|----13-12-13p12p10----10-----10------------------------10----10-12/13--12-12-10-12-13-15-12-13-|
G|-------------------12-----12----9-------------------------12-----------------------------------|
D|----------------------------------10-9-----------10-12-----------------------------------------|
A|---------------------------------------12--10-12-----------------------------------------------|
E|-----------------------------------------------------------------------------------------------|
                                             P.M........

e|-17--17p15p13-15-15p13p12-----12/15-13-13-12-----------------------------------------------|
B|--------------------------15-----------------15-13-12--------------------------------------|
G|------------------------------------------------------14-12-10-9---------------------------|
D|-----------------------------------------------------------------12-10-9----10-------------|
A|-------------------------------------------------------------------------12----11b--12-11--|
E|-------------------------------------------------------------------------------------------|

e|----------------------------------------------------------------------------------|
B|-10--8-8-10--8-8-12--8-8-13--8-8-12--10-12-10h12p\8-10--8h10p\6-8-6-5-6p5---6\5---|
G|--------------------------------------------------------------------------7-----7-|
D|----------------------------------------------------------------------------------|
A|----------------------------------------------------------------------------------|
E|----------------------------------------------------------------------------------|
       P.M     P.M     P.M     P.M

e|----------------------------------------------------------------------|
B|-----8------10------12------10--8-6-8--6h8p\5-6-5---------------------|
G|-7-7----7-7-----7-7-----7-7-----------------------7-5-4-5-4---4-------|
D|------------------------------------------------------------7---7-5-5-|
A|----------------------------------------------------------------------|
E|----------------------------------------------------------------------|

e|-----------------------------------------------------------------12/15-13-13-12----------|
B|----------------------------------------------------------10--12----------------15-13-12-|
G|-0-0-0-0-5--0-0-0-0-7--0-0-5--0-0-7--0-0-5--0-0-7--5-7--7--------------------------------|
D|-0-0-0-0-5--0-0-0-0-7--0-0-5--0-0-7--0-0-5--0-0-7----------------------------------------|
A|-----------------------------------------------------------------------------------------|
E|-----------------------------------------------------------------------------------------|

e|------------------------------------19--22-19-|
B|---------------------------13-15-17-----------|
G|-14-12--12-10-9----9-10-12--------------------|
D|----------------12----------------------------|
A|----------------------------------------------|
E|----------------------------------------------|

Solo 2

   ---------------2x--------------
e|-12-8----10-8----12-8----13-8----|
B|------10------10------10------10-|
G|---------------------------------|
D|---------------------------------|
A|---------------------------------|
E|---------------------------------|

e|-12/15-10-10-13p12p10----------10-12-13-10-10-|-10-7---8-7---10-7---12-7-7--10-7---8-7---10-7---7|
B|-------------------10-12-13-------------------|------8-----8------8--------------8-----8------8--|
G|----------------------------------------------|----------------------------|
D|----------------------------------------------|----------------------------|
A|----------------------------------------------|----------------------------|
E|----------------------------------------------|----------------------------|

e|-8-8-12p8--8-----------------------|----17----19----20-20p19p17-------------------------------|
B|--------10---10--------------------|-17----17----17-------------20b--20-18-17-----------------|
G|----------------9---------------12-|------------------------------------------19-17-16--17-19-|
D|------------------12-10-9----------|----------------------------------------------------------|
A|--------------------------12-10----|----------------------------------------------------------|
E|-----------------------------------|----------------------------------------------------------|

e|-------------------------------------17-19----17-19-20-21b--21b-20-|
B|----20b-20b-----------------17-18-20-------20----------------------|
G|-17----------------16-17-19----------------------------------------|
D|-------------17-19-------------------------------------------------|
A|-------------------------------------------------------------------|
E|-------------------------------------------------------------------|